ISO-10303-21;
HEADER;
/* Generated by software containing ST-Developer
 * from STEP Tools, Inc. (www.steptools.com) 
 */

FILE_DESCRIPTION(
/* description */ (''),
/* implementation_level */ '2;1');

FILE_NAME(
/* name */ '8250',
/* time_stamp */ '2021-07-29T09:19:35+08:00',
/* author */ (''),
/* organization */ (''),
/* preprocessor_version */ 'ST-DEVELOPER v9',
/* originating_system */ 'UGS - NX 4.0',
/* authorisation */ '');

FILE_SCHEMA (('CONFIG_CONTROL_DESIGN'));
ENDSEC;

DATA;
#10=SHAPE_REPRESENTATION_RELATIONSHIP('None',
'relationship between Admi91F1zcht-None and Admi91F1zcht-None',#94,#11);
#11=ADVANCED_BREP_SHAPE_REPRESENTATION('Admi91F1zcht-None',(#95),#509);
#12=CC_DESIGN_APPROVAL(#24,(#82));
#13=CC_DESIGN_APPROVAL(#25,(#84));
#14=CC_DESIGN_APPROVAL(#26,(#31));
#15=APPROVAL_PERSON_ORGANIZATION(#69,#24,#18);
#16=APPROVAL_PERSON_ORGANIZATION(#70,#25,#19);
#17=APPROVAL_PERSON_ORGANIZATION(#71,#26,#20);
#18=APPROVAL_ROLE('approver');
#19=APPROVAL_ROLE('approver');
#20=APPROVAL_ROLE('approver');
#21=APPROVAL_DATE_TIME(#39,#24);
#22=APPROVAL_DATE_TIME(#40,#25);
#23=APPROVAL_DATE_TIME(#41,#26);
#24=APPROVAL(#27,' ');
#25=APPROVAL(#28,' ');
#26=APPROVAL(#29,' ');
#27=APPROVAL_STATUS('not_yet_approved');
#28=APPROVAL_STATUS('not_yet_approved');
#29=APPROVAL_STATUS('not_yet_approved');
#30=CC_DESIGN_SECURITY_CLASSIFICATION(#31,(#84));
#31=SECURITY_CLASSIFICATION(' ',' ',#32);
#32=SECURITY_CLASSIFICATION_LEVEL('confidential');
#33=CC_DESIGN_DATE_AND_TIME_ASSIGNMENT(#37,#35,(#82));
#34=CC_DESIGN_DATE_AND_TIME_ASSIGNMENT(#38,#36,(#31));
#35=DATE_TIME_ROLE('creation_date');
#36=DATE_TIME_ROLE('classification_date');
#37=DATE_AND_TIME(#52,#42);
#38=DATE_AND_TIME(#53,#43);
#39=DATE_AND_TIME(#54,#44);
#40=DATE_AND_TIME(#55,#45);
#41=DATE_AND_TIME(#56,#46);
#42=LOCAL_TIME(0,0,0.,#47);
#43=LOCAL_TIME(0,0,0.,#48);
#44=LOCAL_TIME(0,0,0.,#49);
#45=LOCAL_TIME(0,0,0.,#50);
#46=LOCAL_TIME(0,0,0.,#51);
#47=COORDINATED_UNIVERSAL_TIME_OFFSET(0,0,.BEHIND.);
#48=COORDINATED_UNIVERSAL_TIME_OFFSET(0,0,.BEHIND.);
#49=COORDINATED_UNIVERSAL_TIME_OFFSET(0,0,.BEHIND.);
#50=COORDINATED_UNIVERSAL_TIME_OFFSET(0,0,.BEHIND.);
#51=COORDINATED_UNIVERSAL_TIME_OFFSET(0,0,.BEHIND.);
#52=CALENDAR_DATE(0,1,1);
#53=CALENDAR_DATE(0,1,1);
#54=CALENDAR_DATE(0,1,1);
#55=CALENDAR_DATE(0,1,1);
#56=CALENDAR_DATE(0,1,1);
#57=CC_DESIGN_PERSON_AND_ORGANIZATION_ASSIGNMENT(#65,#61,(#82,#84));
#58=CC_DESIGN_PERSON_AND_ORGANIZATION_ASSIGNMENT(#66,#62,(#86));
#59=CC_DESIGN_PERSON_AND_ORGANIZATION_ASSIGNMENT(#67,#63,(#84));
#60=CC_DESIGN_PERSON_AND_ORGANIZATION_ASSIGNMENT(#68,#64,(#31));
#61=PERSON_AND_ORGANIZATION_ROLE('creator');
#62=PERSON_AND_ORGANIZATION_ROLE('design_owner');
#63=PERSON_AND_ORGANIZATION_ROLE('design_supplier');
#64=PERSON_AND_ORGANIZATION_ROLE('classification_officer');
#65=PERSON_AND_ORGANIZATION(#79,#72);
#66=PERSON_AND_ORGANIZATION(#79,#73);
#67=PERSON_AND_ORGANIZATION(#79,#74);
#68=PERSON_AND_ORGANIZATION(#79,#75);
#69=PERSON_AND_ORGANIZATION(#79,#76);
#70=PERSON_AND_ORGANIZATION(#79,#77);
#71=PERSON_AND_ORGANIZATION(#79,#78);
#72=ORGANIZATION(' ',' ',' ');
#73=ORGANIZATION(' ',' ',' ');
#74=ORGANIZATION(' ',' ',' ');
#75=ORGANIZATION(' ',' ',' ');
#76=ORGANIZATION(' ',' ',' ');
#77=ORGANIZATION(' ',' ',' ');
#78=ORGANIZATION(' ',' ',' ');
#79=PERSON(' ',' ',' ',(' '),$,$);
#80=SHAPE_DEFINITION_REPRESENTATION(#81,#94);
#81=PRODUCT_DEFINITION_SHAPE('','',#82);
#82=PRODUCT_DEFINITION(' ','',#84,#83);
#83=DESIGN_CONTEXT('',#93,'design');
#84=PRODUCT_DEFINITION_FORMATION_WITH_SPECIFIED_SOURCE(' ',' ',#86,.NOT_KNOWN.);
#85=PRODUCT_RELATED_PRODUCT_CATEGORY('detail','',(#86));
#86=PRODUCT('Admi91F1zcht','Admi91F1zcht',' ',(#91));
#87=PRODUCT_CATEGORY_RELATIONSHIP(' ',' ',#89,#90);
#88=PRODUCT_CATEGORY_RELATIONSHIP('','',#90,#85);
#89=PRODUCT_CATEGORY('part',' ');
#90=PRODUCT_CATEGORY(' ','');
#91=MECHANICAL_CONTEXT(' ',#93,'mechanical');
#92=APPLICATION_PROTOCOL_DEFINITION('international standard',
'config_control_design',1994,#93);
#93=APPLICATION_CONTEXT(
'configuration controlled 3D designs of mechanical parts and assemblies
');
#94=SHAPE_REPRESENTATION('Admi91F1zcht-None',(#295),#509);
#95=MANIFOLD_SOLID_BREP('',#96);
#96=CLOSED_SHELL('',(#114,#115,#116,#117,#118,#119,#120,#121,#122,#123,#124,
#125,#126,#127,#128,#129,#130,#131));
#97=CONICAL_SURFACE('',#309,137.12087345819,89.9423412737796);
#98=CONICAL_SURFACE('',#317,165.331824727829,9.77975671162239);
#99=CONICAL_SURFACE('',#329,23.,45.);
#100=CYLINDRICAL_SURFACE('',#306,38.5);
#101=CYLINDRICAL_SURFACE('',#311,187.666252597031);
#102=CYLINDRICAL_SURFACE('',#328,23.);
#103=PLANE('',#301);
#104=PLANE('',#304);
#105=PLANE('',#313);
#106=FACE_OUTER_BOUND('',#174,.T.);
#107=FACE_OUTER_BOUND('',#176,.T.);
#108=FACE_OUTER_BOUND('',#181,.T.);
#109=FACE_OUTER_BOUND('',#186,.T.);
#110=FACE_OUTER_BOUND('',#190,.T.);
#111=FACE_OUTER_BOUND('',#203,.T.);
#112=(
BOUNDED_SURFACE()
B_SPLINE_SURFACE(3,3,((#408,#409,#410,#411,#412,#413,#414),(#415,#416,#417,
#418,#419,#420,#421),(#422,#423,#424,#425,#426,#427,#428),(#429,#430,#431,
#432,#433,#434,#435)),.UNSPECIFIED.,.F.,.T.,.F.)
B_SPLINE_SURFACE_WITH_KNOTS((4,4),(1,3,3,3,1),(0.,1.),(-0.5,0.,0.5,1.,1.5),
.UNSPECIFIED.)
GEOMETRIC_REPRESENTATION_ITEM()
RATIONAL_B_SPLINE_SURFACE(((1.,0.333333333333333,0.333333333333333,1.,0.333333333333333,
0.333333333333333,1.),(0.921180838550029,0.307060279516676,0.307060279516676,
0.921180838550029,0.307060279516676,0.307060279516676,0.921180838550029),
(0.921180838550029,0.307060279516676,0.307060279516676,0.921180838550029,
0.307060279516676,0.307060279516676,0.921180838550029),(1.,0.333333333333333,
0.333333333333333,1.,0.333333333333333,0.333333333333333,1.)))
REPRESENTATION_ITEM('')
SURFACE()
);
#113=(
BOUNDED_SURFACE()
B_SPLINE_SURFACE(3,3,((#449,#450,#451,#452,#453,#454,#455),(#456,#457,#458,
#459,#460,#461,#462),(#463,#464,#465,#466,#467,#468,#469),(#470,#471,#472,
#473,#474,#475,#476)),.UNSPECIFIED.,.F.,.T.,.F.)
B_SPLINE_SURFACE_WITH_KNOTS((4,4),(1,3,3,3,1),(0.,1.),(-0.5,0.,0.5,1.,1.5),
.UNSPECIFIED.)
GEOMETRIC_REPRESENTATION_ITEM()
RATIONAL_B_SPLINE_SURFACE(((1.,0.333333333333333,0.333333333333333,1.,0.333333333333333,
0.333333333333333,1.),(0.949609180969956,0.316536393656652,0.316536393656652,
0.949609180969956,0.316536393656652,0.316536393656652,0.949609180969956),
(0.949609180969956,0.316536393656652,0.316536393656652,0.949609180969956,
0.316536393656652,0.316536393656652,0.949609180969956),(1.,0.333333333333333,
0.333333333333333,1.,0.333333333333333,0.333333333333333,1.)))
REPRESENTATION_ITEM('')
SURFACE()
);
#114=ADVANCED_FACE('',(#139,#140),#132,.T.);
#115=ADVANCED_FACE('',(#141,#142),#112,.T.);
#116=ADVANCED_FACE('',(#143,#106),#103,.F.);
#117=ADVANCED_FACE('',(#144,#107),#104,.F.);
#118=ADVANCED_FACE('',(#145,#146),#100,.T.);
#119=ADVANCED_FACE('',(#147,#148),#113,.T.);
#120=ADVANCED_FACE('',(#108,#149),#97,.F.);
#121=ADVANCED_FACE('',(#150,#151),#101,.T.);
#122=ADVANCED_FACE('',(#152,#109),#105,.F.);
#123=ADVANCED_FACE('',(#153,#154),#133,.F.);
#124=ADVANCED_FACE('',(#155,#110),#98,.T.);
#125=ADVANCED_FACE('',(#156,#157),#134,.T.);
#126=ADVANCED_FACE('',(#158,#159),#135,.F.);
#127=ADVANCED_FACE('',(#160,#161),#136,.T.);
#128=ADVANCED_FACE('',(#162,#163),#137,.T.);
#129=ADVANCED_FACE('',(#164,#165),#138,.T.);
#130=ADVANCED_FACE('',(#166,#167),#102,.F.);
#131=ADVANCED_FACE('',(#111,#168),#99,.F.);
#132=TOROIDAL_SURFACE('',#298,172.011824918678,36.0000000000003);
#133=TOROIDAL_SURFACE('',#315,188.149830236798,23.0000000000003);
#134=TOROIDAL_SURFACE('',#319,154.30216007249,8.00000000000008);
#135=TOROIDAL_SURFACE('',#321,123.200267479377,35.9999999999998);
#136=TOROIDAL_SURFACE('',#323,172.267979994533,36.4209122274797);
#137=TOROIDAL_SURFACE('',#325,167.661872517405,30.0000000000003);
#138=TOROIDAL_SURFACE('',#326,220.20374135967,90.098351704676);
#139=FACE_BOUND('',#169,.T.);
#140=FACE_BOUND('',#170,.T.);
#141=FACE_BOUND('',#171,.T.);
#142=FACE_BOUND('',#172,.T.);
#143=FACE_BOUND('',#173,.T.);
#144=FACE_BOUND('',#175,.T.);
#145=FACE_BOUND('',#177,.T.);
#146=FACE_BOUND('',#178,.T.);
#147=FACE_BOUND('',#179,.T.);
#148=FACE_BOUND('',#180,.T.);
#149=FACE_BOUND('',#182,.T.);
#150=FACE_BOUND('',#183,.T.);
#151=FACE_BOUND('',#184,.T.);
#152=FACE_BOUND('',#185,.T.);
#153=FACE_BOUND('',#187,.T.);
#154=FACE_BOUND('',#188,.T.);
#155=FACE_BOUND('',#189,.T.);
#156=FACE_BOUND('',#191,.T.);
#157=FACE_BOUND('',#192,.T.);
#158=FACE_BOUND('',#193,.T.);
#159=FACE_BOUND('',#194,.T.);
#160=FACE_BOUND('',#195,.T.);
#161=FACE_BOUND('',#196,.T.);
#162=FACE_BOUND('',#197,.T.);
#163=FACE_BOUND('',#198,.T.);
#164=FACE_BOUND('',#199,.T.);
#165=FACE_BOUND('',#200,.T.);
#166=FACE_BOUND('',#201,.T.);
#167=FACE_BOUND('',#202,.T.);
#168=FACE_BOUND('',#204,.T.);
#169=EDGE_LOOP('',(#205));
#170=EDGE_LOOP('',(#206));
#171=EDGE_LOOP('',(#207));
#172=EDGE_LOOP('',(#208));
#173=EDGE_LOOP('',(#209));
#174=EDGE_LOOP('',(#210));
#175=EDGE_LOOP('',(#211));
#176=EDGE_LOOP('',(#212));
#177=EDGE_LOOP('',(#213));
#178=EDGE_LOOP('',(#214));
#179=EDGE_LOOP('',(#215));
#180=EDGE_LOOP('',(#216));
#181=EDGE_LOOP('',(#217));
#182=EDGE_LOOP('',(#218));
#183=EDGE_LOOP('',(#219));
#184=EDGE_LOOP('',(#220));
#185=EDGE_LOOP('',(#221));
#186=EDGE_LOOP('',(#222));
#187=EDGE_LOOP('',(#223));
#188=EDGE_LOOP('',(#224));
#189=EDGE_LOOP('',(#225));
#190=EDGE_LOOP('',(#226));
#191=EDGE_LOOP('',(#227));
#192=EDGE_LOOP('',(#228));
#193=EDGE_LOOP('',(#229));
#194=EDGE_LOOP('',(#230));
#195=EDGE_LOOP('',(#231));
#196=EDGE_LOOP('',(#232));
#197=EDGE_LOOP('',(#233));
#198=EDGE_LOOP('',(#234));
#199=EDGE_LOOP('',(#235));
#200=EDGE_LOOP('',(#236));
#201=EDGE_LOOP('',(#237));
#202=EDGE_LOOP('',(#238));
#203=EDGE_LOOP('',(#239));
#204=EDGE_LOOP('',(#240));
#205=ORIENTED_EDGE('',*,*,#259,.F.);
#206=ORIENTED_EDGE('',*,*,#260,.T.);
#207=ORIENTED_EDGE('',*,*,#261,.F.);
#208=ORIENTED_EDGE('',*,*,#259,.T.);
#209=ORIENTED_EDGE('',*,*,#262,.T.);
#210=ORIENTED_EDGE('',*,*,#261,.T.);
#211=ORIENTED_EDGE('',*,*,#263,.T.);
#212=ORIENTED_EDGE('',*,*,#264,.F.);
#213=ORIENTED_EDGE('',*,*,#265,.F.);
#214=ORIENTED_EDGE('',*,*,#264,.T.);
#215=ORIENTED_EDGE('',*,*,#266,.F.);
#216=ORIENTED_EDGE('',*,*,#265,.T.);
#217=ORIENTED_EDGE('',*,*,#267,.F.);
#218=ORIENTED_EDGE('',*,*,#266,.T.);
#219=ORIENTED_EDGE('',*,*,#268,.F.);
#220=ORIENTED_EDGE('',*,*,#267,.T.);
#221=ORIENTED_EDGE('',*,*,#269,.F.);
#222=ORIENTED_EDGE('',*,*,#268,.T.);
#223=ORIENTED_EDGE('',*,*,#270,.F.);
#224=ORIENTED_EDGE('',*,*,#269,.T.);
#225=ORIENTED_EDGE('',*,*,#271,.F.);
#226=ORIENTED_EDGE('',*,*,#270,.T.);
#227=ORIENTED_EDGE('',*,*,#272,.F.);
#228=ORIENTED_EDGE('',*,*,#271,.T.);
#229=ORIENTED_EDGE('',*,*,#273,.F.);
#230=ORIENTED_EDGE('',*,*,#272,.T.);
#231=ORIENTED_EDGE('',*,*,#274,.F.);
#232=ORIENTED_EDGE('',*,*,#273,.T.);
#233=ORIENTED_EDGE('',*,*,#275,.F.);
#234=ORIENTED_EDGE('',*,*,#274,.T.);
#235=ORIENTED_EDGE('',*,*,#260,.F.);
#236=ORIENTED_EDGE('',*,*,#275,.T.);
#237=ORIENTED_EDGE('',*,*,#276,.T.);
#238=ORIENTED_EDGE('',*,*,#263,.F.);
#239=ORIENTED_EDGE('',*,*,#262,.F.);
#240=ORIENTED_EDGE('',*,*,#276,.F.);
#241=VERTEX_POINT('',#402);
#242=VERTEX_POINT('',#404);
#243=VERTEX_POINT('',#407);
#244=VERTEX_POINT('',#437);
#245=VERTEX_POINT('',#440);
#246=VERTEX_POINT('',#442);
#247=VERTEX_POINT('',#445);
#248=VERTEX_POINT('',#448);
#249=VERTEX_POINT('',#478);
#250=VERTEX_POINT('',#481);
#251=VERTEX_POINT('',#484);
#252=VERTEX_POINT('',#487);
#253=VERTEX_POINT('',#490);
#254=VERTEX_POINT('',#493);
#255=VERTEX_POINT('',#496);
#256=VERTEX_POINT('',#499);
#257=VERTEX_POINT('',#502);
#258=VERTEX_POINT('',#506);
#259=EDGE_CURVE('',#241,#241,#277,.T.);
#260=EDGE_CURVE('',#242,#242,#278,.T.);
#261=EDGE_CURVE('',#243,#243,#279,.T.);
#262=EDGE_CURVE('',#244,#244,#280,.T.);
#263=EDGE_CURVE('',#245,#245,#281,.T.);
#264=EDGE_CURVE('',#246,#246,#282,.T.);
#265=EDGE_CURVE('',#247,#247,#283,.T.);
#266=EDGE_CURVE('',#248,#248,#284,.T.);
#267=EDGE_CURVE('',#249,#249,#285,.T.);
#268=EDGE_CURVE('',#250,#250,#286,.T.);
#269=EDGE_CURVE('',#251,#251,#287,.T.);
#270=EDGE_CURVE('',#252,#252,#288,.T.);
#271=EDGE_CURVE('',#253,#253,#289,.T.);
#272=EDGE_CURVE('',#254,#254,#290,.T.);
#273=EDGE_CURVE('',#255,#255,#291,.T.);
#274=EDGE_CURVE('',#256,#256,#292,.T.);
#275=EDGE_CURVE('',#257,#257,#293,.T.);
#276=EDGE_CURVE('',#258,#258,#294,.T.);
#277=CIRCLE('',#296,138.409183160237);
#278=CIRCLE('',#297,139.942289762628);
#279=CIRCLE('',#299,31.1615002743593);
#280=CIRCLE('',#300,30.5);
#281=CIRCLE('',#302,23.);
#282=CIRCLE('',#303,38.5);
#283=CIRCLE('',#305,38.5);
#284=CIRCLE('',#307,137.12087345819);
#285=CIRCLE('',#308,187.666252597031);
#286=CIRCLE('',#310,187.666252597031);
#287=CIRCLE('',#312,178.757625461818);
#288=CIRCLE('',#314,165.331824727829);
#289=CIRCLE('',#316,162.223319440207);
#290=CIRCLE('',#318,148.647270510108);
#291=CIRCLE('',#320,147.591532325596);
#292=CIRCLE('',#322,146.141063726044);
#293=CIRCLE('',#324,141.43393080922);
#294=CIRCLE('',#327,23.);
#295=AXIS2_PLACEMENT_3D('',#400,#330,#331);
#296=AXIS2_PLACEMENT_3D('',#401,#332,#333);
#297=AXIS2_PLACEMENT_3D('',#403,#334,#335);
#298=AXIS2_PLACEMENT_3D('',#405,#336,#337);
#299=AXIS2_PLACEMENT_3D('',#406,#338,#339);
#300=AXIS2_PLACEMENT_3D('',#436,#340,#341);
#301=AXIS2_PLACEMENT_3D('',#438,#342,#343);
#302=AXIS2_PLACEMENT_3D('',#439,#344,#345);
#303=AXIS2_PLACEMENT_3D('',#441,#346,#347);
#304=AXIS2_PLACEMENT_3D('',#443,#348,#349);
#305=AXIS2_PLACEMENT_3D('',#444,#350,#351);
#306=AXIS2_PLACEMENT_3D('',#446,#352,#353);
#307=AXIS2_PLACEMENT_3D('',#447,#354,#355);
#308=AXIS2_PLACEMENT_3D('',#477,#356,#357);
#309=AXIS2_PLACEMENT_3D('',#479,#358,#359);
#310=AXIS2_PLACEMENT_3D('',#480,#360,#361);
#311=AXIS2_PLACEMENT_3D('',#482,#362,#363);
#312=AXIS2_PLACEMENT_3D('',#483,#364,#365);
#313=AXIS2_PLACEMENT_3D('',#485,#366,#367);
#314=AXIS2_PLACEMENT_3D('',#486,#368,#369);
#315=AXIS2_PLACEMENT_3D('',#488,#370,#371);
#316=AXIS2_PLACEMENT_3D('',#489,#372,#373);
#317=AXIS2_PLACEMENT_3D('',#491,#374,#375);
#318=AXIS2_PLACEMENT_3D('',#492,#376,#377);
#319=AXIS2_PLACEMENT_3D('',#494,#378,#379);
#320=AXIS2_PLACEMENT_3D('',#495,#380,#381);
#321=AXIS2_PLACEMENT_3D('',#497,#382,#383);
#322=AXIS2_PLACEMENT_3D('',#498,#384,#385);
#323=AXIS2_PLACEMENT_3D('',#500,#386,#387);
#324=AXIS2_PLACEMENT_3D('',#501,#388,#389);
#325=AXIS2_PLACEMENT_3D('',#503,#390,#391);
#326=AXIS2_PLACEMENT_3D('',#504,#392,#393);
#327=AXIS2_PLACEMENT_3D('',#505,#394,#395);
#328=AXIS2_PLACEMENT_3D('',#507,#396,#397);
#329=AXIS2_PLACEMENT_3D('',#508,#398,#399);
#330=DIRECTION('',(0.,0.,1.));
#331=DIRECTION('',(1.,0.,0.));
#332=DIRECTION('',(5.87498004020896E-016,0.,1.));
#333=DIRECTION('',(-1.,0.,5.76531687225921E-016));
#334=DIRECTION('',(5.87498004020896E-016,0.,1.));
#335=DIRECTION('',(-1.,0.,5.82611614467688E-016));
#336=DIRECTION('',(5.87498004020896E-016,0.,1.));
#337=DIRECTION('',(-1.,0.,5.83767982257016E-016));
#338=DIRECTION('',(5.87498004020896E-016,0.,1.));
#339=DIRECTION('',(-1.,0.,4.45350438381606E-016));
#340=DIRECTION('',(-5.87498004020896E-016,0.,-1.));
#341=DIRECTION('',(-1.,0.,4.55009436321785E-016));
#342=DIRECTION('',(-5.87498004020896E-016,0.,-1.));
#343=DIRECTION('',(1.,0.,-5.82867087928207E-016));
#344=DIRECTION('',(5.87498004020896E-016,0.,1.));
#345=DIRECTION('',(1.,0.,0.));
#346=DIRECTION('',(5.87498004020896E-016,0.,1.));
#347=DIRECTION('',(1.,0.,-7.20924041964387E-016));
#348=DIRECTION('',(5.87498004020896E-016,0.,1.));
#349=DIRECTION('',(-1.,0.,5.82867087928207E-016));
#350=DIRECTION('',(5.87498004020896E-016,0.,1.));
#351=DIRECTION('',(-1.,0.,7.20924041964387E-016));
#352=DIRECTION('',(5.87498004020896E-016,0.,1.));
#353=DIRECTION('',(-1.,0.,7.20924041964387E-016));
#354=DIRECTION('',(5.87498004020896E-016,0.,1.));
#355=DIRECTION('',(-1.,0.,6.07250557459992E-016));
#356=DIRECTION('',(5.87498004020896E-016,0.,1.));
#357=DIRECTION('',(-1.,0.,5.9159439124577E-016));
#358=DIRECTION('',(-5.87498004020896E-016,0.,-1.));
#359=DIRECTION('',(1.,0.,-5.87504934200798E-016));
#360=DIRECTION('',(5.87498004020896E-016,0.,1.));
#361=DIRECTION('',(-1.,0.,5.9159439124577E-016));
#362=DIRECTION('',(5.87498004020896E-016,0.,1.));
#363=DIRECTION('',(-1.,0.,5.9159439124577E-016));
#364=DIRECTION('',(5.87498004020896E-016,0.,1.));
#365=DIRECTION('',(-1.,0.,5.82259963957959E-016));
#366=DIRECTION('',(-5.87498004020896E-016,0.,-1.));
#367=DIRECTION('',(1.,0.,-5.89805981832114E-016));
#368=DIRECTION('',(5.87498004020896E-016,0.,1.));
#369=DIRECTION('',(-1.,0.,5.87572990346061E-016));
#370=DIRECTION('',(5.87498004020896E-016,0.,1.));
#371=DIRECTION('',(-1.,0.,5.91523517353806E-016));
#372=DIRECTION('',(5.87498004020896E-016,0.,1.));
#373=DIRECTION('',(-1.,0.,5.88138570385319E-016));
#374=DIRECTION('',(-5.87498004020896E-016,0.,-1.));
#375=DIRECTION('',(1.,0.,-3.90405005376711E-016));
#376=DIRECTION('',(5.87498004020896E-016,0.,1.));
#377=DIRECTION('',(-1.,0.,5.86420822721444E-016));
#378=DIRECTION('',(5.87498004020896E-016,0.,1.));
#379=DIRECTION('',(-1.,0.,5.87852873529909E-016));
#380=DIRECTION('',(5.87498004020896E-016,0.,1.));
#381=DIRECTION('',(-1.,0.,5.8767716841299E-016));
#382=DIRECTION('',(5.87498004020896E-016,0.,1.));
#383=DIRECTION('',(-1.,0.,5.8841024067301E-016));
#384=DIRECTION('',(5.87498004020896E-016,0.,1.));
#385=DIRECTION('',(-1.,0.,5.87574839484003E-016));
#386=DIRECTION('',(5.87498004020896E-016,0.,1.));
#387=DIRECTION('',(-1.,0.,5.81874013635538E-016));
#388=DIRECTION('',(5.87498004020896E-016,0.,1.));
#389=DIRECTION('',(-1.,0.,5.88732324488703E-016));
#390=DIRECTION('',(5.87498004020896E-016,0.,1.));
#391=DIRECTION('',(-1.,0.,5.79230318706951E-016));
#392=DIRECTION('',(5.87498004020896E-016,0.,1.));
#393=DIRECTION('',(-1.,0.,5.81405171070428E-016));
#394=DIRECTION('',(3.70074341541719E-015,0.,1.));
#395=DIRECTION('',(-1.,0.,3.62029247160377E-015));
#396=DIRECTION('',(5.87498004020896E-016,0.,1.));
#397=DIRECTION('',(1.,0.,0.));
#398=DIRECTION('',(3.70074341541719E-015,0.,1.));
#399=DIRECTION('',(1.,0.,-3.67632502044743E-015));
#400=CARTESIAN_POINT('',(0.,0.,0.));
#401=CARTESIAN_POINT('',(210.000000000001,210.,-17.4312812849652));
#402=CARTESIAN_POINT('',(71.5908168397634,210.,-17.4312812849651));
#403=CARTESIAN_POINT('',(210.000000000001,210.,-13.9920065910621));
#404=CARTESIAN_POINT('',(70.0577102373724,210.,-13.992006591062));
#405=CARTESIAN_POINT('',(210.000000000001,210.,-30.3488068550544));
#406=CARTESIAN_POINT('',(210.000000000001,210.,-110.099824445354));
#407=CARTESIAN_POINT('',(178.838499725641,210.,-110.099824445354));
#408=CARTESIAN_POINT('',(178.838499725641,210.,-110.099824445354));
#409=CARTESIAN_POINT('',(178.838499725641,147.676999451281,-110.099824445354));
#410=CARTESIAN_POINT('',(241.16150027436,147.676999451281,-110.099824445354));
#411=CARTESIAN_POINT('',(241.16150027436,210.,-110.099824445354));
#412=CARTESIAN_POINT('',(241.16150027436,272.323000548718,-110.099824445354));
#413=CARTESIAN_POINT('',(178.838499725641,272.323000548718,-110.099824445354));
#414=CARTESIAN_POINT('',(178.838499725641,210.,-110.099824445354));
#415=CARTESIAN_POINT('',(128.802153591125,210.,-98.8366854849165));
#416=CARTESIAN_POINT('',(128.802153591125,47.6043071822478,-98.8366854849165));
#417=CARTESIAN_POINT('',(291.197846408877,47.6043071822478,-98.8366854849166));
#418=CARTESIAN_POINT('',(291.197846408877,210.,-98.8366854849166));
#419=CARTESIAN_POINT('',(291.197846408877,372.395692817751,-98.8366854849166));
#420=CARTESIAN_POINT('',(128.802153591125,372.395692817751,-98.8366854849165));
#421=CARTESIAN_POINT('',(128.802153591125,210.,-98.8366854849165));
#422=CARTESIAN_POINT('',(89.9941083815691,210.,-65.304166033668));
#423=CARTESIAN_POINT('',(89.9941083815691,-30.0117832368638,-65.304166033668));
#424=CARTESIAN_POINT('',(330.005891618432,-30.0117832368638,-65.3041660336682));
#425=CARTESIAN_POINT('',(330.005891618432,210.,-65.3041660336682));
#426=CARTESIAN_POINT('',(330.005891618432,450.011783236863,-65.3041660336682));
#427=CARTESIAN_POINT('',(89.9941083815691,450.011783236863,-65.304166033668));
#428=CARTESIAN_POINT('',(89.9941083815691,210.,-65.304166033668));
#429=CARTESIAN_POINT('',(71.5908168397634,210.,-17.4312812849652));
#430=CARTESIAN_POINT('',(71.5908168397634,-66.8183663204751,-17.4312812849652));
#431=CARTESIAN_POINT('',(348.409183160238,-66.8183663204751,-17.4312812849653));
#432=CARTESIAN_POINT('',(348.409183160238,210.,-17.4312812849653));
#433=CARTESIAN_POINT('',(348.409183160238,486.818366320474,-17.4312812849653));
#434=CARTESIAN_POINT('',(71.5908168397634,486.818366320474,-17.4312812849652));
#435=CARTESIAN_POINT('',(71.5908168397634,210.,-17.4312812849652));
#436=CARTESIAN_POINT('',(210.000000000001,210.,-110.099824445351));
#437=CARTESIAN_POINT('',(179.500000000001,210.,-110.099824445351));
#438=CARTESIAN_POINT('',(178.838499725615,210.,-110.099824445351));
#439=CARTESIAN_POINT('',(210.000000000001,210.,-128.28859550149));
#440=CARTESIAN_POINT('',(233.000000000001,210.,-128.28859550149));
#441=CARTESIAN_POINT('',(210.000000000001,210.,-128.28859550149));
#442=CARTESIAN_POINT('',(248.500000000001,210.,-128.28859550149));
#443=CARTESIAN_POINT('',(187.000000000001,210.,-128.28859550149));
#444=CARTESIAN_POINT('',(210.000000000001,210.,-120.680860867109));
#445=CARTESIAN_POINT('',(171.500000000001,210.,-120.680860867109));
#446=CARTESIAN_POINT('',(210.000000000001,210.,-134.28859550149));
#447=CARTESIAN_POINT('',(210.000000000001,210.,-47.0563825450242));
#448=CARTESIAN_POINT('',(72.8791265418111,210.,-47.0563825450241));
#449=CARTESIAN_POINT('',(72.8791265418111,210.,-47.0563825450241));
#450=CARTESIAN_POINT('',(72.8791265418111,-64.2417469163797,-47.0563825450241));
#451=CARTESIAN_POINT('',(347.12087345819,-64.2417469163798,-47.0563825450243));
#452=CARTESIAN_POINT('',(347.12087345819,210.,-47.0563825450243));
#453=CARTESIAN_POINT('',(347.12087345819,484.241746916379,-47.0563825450243));
#454=CARTESIAN_POINT('',(72.8791265418111,484.241746916379,-47.0563825450241));
#455=CARTESIAN_POINT('',(72.8791265418111,210.,-47.0563825450241));
#456=CARTESIAN_POINT('',(95.0239461500514,210.,-84.1497497387423));
#457=CARTESIAN_POINT('',(95.0239461500514,-19.9521076998991,-84.1497497387423));
#458=CARTESIAN_POINT('',(324.97605384995,-19.9521076998992,-84.1497497387424));
#459=CARTESIAN_POINT('',(324.97605384995,210.,-84.1497497387424));
#460=CARTESIAN_POINT('',(324.97605384995,439.952107699898,-84.1497497387424));
#461=CARTESIAN_POINT('',(95.0239461500513,439.952107699898,-84.1497497387423));
#462=CARTESIAN_POINT('',(95.0239461500514,210.,-84.1497497387423));
#463=CARTESIAN_POINT('',(129.642002867325,210.,-109.993531860737));
#464=CARTESIAN_POINT('',(129.642002867325,49.2840057346489,-109.993531860737));
#465=CARTESIAN_POINT('',(290.357997132676,49.2840057346489,-109.993531860737));
#466=CARTESIAN_POINT('',(290.357997132676,210.,-109.993531860737));
#467=CARTESIAN_POINT('',(290.357997132676,370.71599426535,-109.993531860737));
#468=CARTESIAN_POINT('',(129.642002867325,370.71599426535,-109.993531860737));
#469=CARTESIAN_POINT('',(129.642002867325,210.,-109.993531860737));
#470=CARTESIAN_POINT('',(171.499999999997,210.,-120.680860867123));
#471=CARTESIAN_POINT('',(171.499999999997,132.999999999992,-120.680860867123));
#472=CARTESIAN_POINT('',(248.500000000004,132.999999999992,-120.680860867123));
#473=CARTESIAN_POINT('',(248.500000000004,210.,-120.680860867123));
#474=CARTESIAN_POINT('',(248.500000000004,287.000000000007,-120.680860867123));
#475=CARTESIAN_POINT('',(171.499999999997,287.000000000007,-120.680860867123));
#476=CARTESIAN_POINT('',(171.499999999997,210.,-120.680860867123));
#477=CARTESIAN_POINT('',(210.000000000001,210.,-47.1072481268532));
#478=CARTESIAN_POINT('',(22.3337474029693,210.,-47.1072481268531));
#479=CARTESIAN_POINT('',(210.000000000001,210.,-47.0563825450242));
#480=CARTESIAN_POINT('',(210.000000000001,210.,-43.1072481268532));
#481=CARTESIAN_POINT('',(22.3337474029693,210.,-43.1072481268531));
#482=CARTESIAN_POINT('',(210.000000000001,210.,-134.28859550149));
#483=CARTESIAN_POINT('',(210.000000000001,210.,-43.1072481268605));
#484=CARTESIAN_POINT('',(31.2423745381828,210.,-43.1072481268604));
#485=CARTESIAN_POINT('',(22.3337474029693,210.,-43.1072481268567));
#486=CARTESIAN_POINT('',(210.000000000001,210.,-25.));
#487=CARTESIAN_POINT('',(44.6681752721721,210.,-24.9999999999999));
#488=CARTESIAN_POINT('',(210.000000000001,210.,-22.1123323264876));
#489=CARTESIAN_POINT('',(210.000000000001,210.,-6.96568712513203));
#490=CARTESIAN_POINT('',(47.7766805597937,210.,-6.96568712513194));
#491=CARTESIAN_POINT('',(210.000000000001,210.,-25.));
#492=CARTESIAN_POINT('',(210.000000000001,210.,-2.42724125111406));
#493=CARTESIAN_POINT('',(61.3527294898929,210.,-2.42724125111398));
#494=CARTESIAN_POINT('',(210.000000000001,210.,-8.08605950559667));
#495=CARTESIAN_POINT('',(210.000000000001,210.,-3.44021382084366));
#496=CARTESIAN_POINT('',(62.408467674405,210.,-3.44021382084357));
#497=CARTESIAN_POINT('',(210.000000000001,210.,23.0374408940586));
#498=CARTESIAN_POINT('',(210.000000000001,210.,-4.85290911555874));
#499=CARTESIAN_POINT('',(63.8589362739565,210.,-4.85290911555865));
#500=CARTESIAN_POINT('',(210.000000000001,210.,-30.227445441986));
#501=CARTESIAN_POINT('',(210.000000000001,210.,-11.1904963357886));
#502=CARTESIAN_POINT('',(68.5660691907803,210.,-11.1904963357885));
#503=CARTESIAN_POINT('',(210.000000000001,210.,-25.7539805944437));
#504=CARTESIAN_POINT('',(210.000000000001,210.,-54.9286938951812));
#505=CARTESIAN_POINT('',(210.000000000001,210.,-117.599824445351));
#506=CARTESIAN_POINT('',(187.000000000001,210.,-117.599824445351));
#507=CARTESIAN_POINT('',(210.000000000001,210.,-135.099824445351));
#508=CARTESIAN_POINT('',(210.000000000001,210.,-117.599824445351));
#509=(
GEOMETRIC_REPRESENTATION_CONTEXT(3)
GLOBAL_UNCERTAINTY_ASSIGNED_CONTEXT((#510))
GLOBAL_UNIT_ASSIGNED_CONTEXT((#516,#512,#511))
REPRESENTATION_CONTEXT('8250','TOP_LEVEL_ASSEMBLY_PART')
);
#510=UNCERTAINTY_MEASURE_WITH_UNIT(LENGTH_MEASURE(0.0254),#516,
'DISTANCE_ACCURACY_VALUE','Maximum Tolerance applied to model');
#511=(
NAMED_UNIT(*)
SI_UNIT($,.STERADIAN.)
SOLID_ANGLE_UNIT()
);
#512=(
CONVERSION_BASED_UNIT('DEGREE',#514)
NAMED_UNIT(#513)
PLANE_ANGLE_UNIT()
);
#513=DIMENSIONAL_EXPONENTS(0.,0.,0.,0.,0.,0.,0.);
#514=PLANE_ANGLE_MEASURE_WITH_UNIT(PLANE_ANGLE_MEASURE(0.0174532925),#515);
#515=(
NAMED_UNIT(*)
PLANE_ANGLE_UNIT()
SI_UNIT($,.RADIAN.)
);
#516=(
LENGTH_UNIT()
NAMED_UNIT(*)
SI_UNIT(.MILLI.,.METRE.)
);
ENDSEC;
END-ISO-10303-21;
