ISO-10303-21;
HEADER;
/* Generated by software containing ST-Developer
 * from STEP Tools, Inc. (www.steptools.com) 
 */

FILE_DESCRIPTION(
/* description */ (''),
/* implementation_level */ '2;1');

FILE_NAME(
/* name */ '400-1',
/* time_stamp */ '2021-07-27T10:06:49+08:00',
/* author */ (''),
/* organization */ (''),
/* preprocessor_version */ 'ST-DEVELOPER v9',
/* originating_system */ 'UGS - NX 4.0',
/* authorisation */ '');

FILE_SCHEMA (('CONFIG_CONTROL_DESIGN'));
ENDSEC;

DATA;
#10=SHAPE_REPRESENTATION_RELATIONSHIP('None',
'relationship between Admi80E8vqto-None and Admi80E8vqto-None',#94,#11);
#11=ADVANCED_BREP_SHAPE_REPRESENTATION('Admi80E8vqto-None',(#95),#341);
#12=CC_DESIGN_APPROVAL(#24,(#82));
#13=CC_DESIGN_APPROVAL(#25,(#84));
#14=CC_DESIGN_APPROVAL(#26,(#31));
#15=APPROVAL_PERSON_ORGANIZATION(#69,#24,#18);
#16=APPROVAL_PERSON_ORGANIZATION(#70,#25,#19);
#17=APPROVAL_PERSON_ORGANIZATION(#71,#26,#20);
#18=APPROVAL_ROLE('approver');
#19=APPROVAL_ROLE('approver');
#20=APPROVAL_ROLE('approver');
#21=APPROVAL_DATE_TIME(#39,#24);
#22=APPROVAL_DATE_TIME(#40,#25);
#23=APPROVAL_DATE_TIME(#41,#26);
#24=APPROVAL(#27,' ');
#25=APPROVAL(#28,' ');
#26=APPROVAL(#29,' ');
#27=APPROVAL_STATUS('not_yet_approved');
#28=APPROVAL_STATUS('not_yet_approved');
#29=APPROVAL_STATUS('not_yet_approved');
#30=CC_DESIGN_SECURITY_CLASSIFICATION(#31,(#84));
#31=SECURITY_CLASSIFICATION(' ',' ',#32);
#32=SECURITY_CLASSIFICATION_LEVEL('confidential');
#33=CC_DESIGN_DATE_AND_TIME_ASSIGNMENT(#37,#35,(#82));
#34=CC_DESIGN_DATE_AND_TIME_ASSIGNMENT(#38,#36,(#31));
#35=DATE_TIME_ROLE('creation_date');
#36=DATE_TIME_ROLE('classification_date');
#37=DATE_AND_TIME(#52,#42);
#38=DATE_AND_TIME(#53,#43);
#39=DATE_AND_TIME(#54,#44);
#40=DATE_AND_TIME(#55,#45);
#41=DATE_AND_TIME(#56,#46);
#42=LOCAL_TIME(0,0,0.,#47);
#43=LOCAL_TIME(0,0,0.,#48);
#44=LOCAL_TIME(0,0,0.,#49);
#45=LOCAL_TIME(0,0,0.,#50);
#46=LOCAL_TIME(0,0,0.,#51);
#47=COORDINATED_UNIVERSAL_TIME_OFFSET(0,0,.BEHIND.);
#48=COORDINATED_UNIVERSAL_TIME_OFFSET(0,0,.BEHIND.);
#49=COORDINATED_UNIVERSAL_TIME_OFFSET(0,0,.BEHIND.);
#50=COORDINATED_UNIVERSAL_TIME_OFFSET(0,0,.BEHIND.);
#51=COORDINATED_UNIVERSAL_TIME_OFFSET(0,0,.BEHIND.);
#52=CALENDAR_DATE(0,1,1);
#53=CALENDAR_DATE(0,1,1);
#54=CALENDAR_DATE(0,1,1);
#55=CALENDAR_DATE(0,1,1);
#56=CALENDAR_DATE(0,1,1);
#57=CC_DESIGN_PERSON_AND_ORGANIZATION_ASSIGNMENT(#65,#61,(#82,#84));
#58=CC_DESIGN_PERSON_AND_ORGANIZATION_ASSIGNMENT(#66,#62,(#86));
#59=CC_DESIGN_PERSON_AND_ORGANIZATION_ASSIGNMENT(#67,#63,(#84));
#60=CC_DESIGN_PERSON_AND_ORGANIZATION_ASSIGNMENT(#68,#64,(#31));
#61=PERSON_AND_ORGANIZATION_ROLE('creator');
#62=PERSON_AND_ORGANIZATION_ROLE('design_owner');
#63=PERSON_AND_ORGANIZATION_ROLE('design_supplier');
#64=PERSON_AND_ORGANIZATION_ROLE('classification_officer');
#65=PERSON_AND_ORGANIZATION(#79,#72);
#66=PERSON_AND_ORGANIZATION(#79,#73);
#67=PERSON_AND_ORGANIZATION(#79,#74);
#68=PERSON_AND_ORGANIZATION(#79,#75);
#69=PERSON_AND_ORGANIZATION(#79,#76);
#70=PERSON_AND_ORGANIZATION(#79,#77);
#71=PERSON_AND_ORGANIZATION(#79,#78);
#72=ORGANIZATION(' ',' ',' ');
#73=ORGANIZATION(' ',' ',' ');
#74=ORGANIZATION(' ',' ',' ');
#75=ORGANIZATION(' ',' ',' ');
#76=ORGANIZATION(' ',' ',' ');
#77=ORGANIZATION(' ',' ',' ');
#78=ORGANIZATION(' ',' ',' ');
#79=PERSON(' ',' ',' ',(' '),$,$);
#80=SHAPE_DEFINITION_REPRESENTATION(#81,#94);
#81=PRODUCT_DEFINITION_SHAPE('','',#82);
#82=PRODUCT_DEFINITION(' ','',#84,#83);
#83=DESIGN_CONTEXT('',#93,'design');
#84=PRODUCT_DEFINITION_FORMATION_WITH_SPECIFIED_SOURCE(' ',' ',#86,.NOT_KNOWN.);
#85=PRODUCT_RELATED_PRODUCT_CATEGORY('detail','',(#86));
#86=PRODUCT('Admi80E8vqto','Admi80E8vqto',' ',(#91));
#87=PRODUCT_CATEGORY_RELATIONSHIP(' ',' ',#89,#90);
#88=PRODUCT_CATEGORY_RELATIONSHIP('','',#90,#85);
#89=PRODUCT_CATEGORY('part',' ');
#90=PRODUCT_CATEGORY(' ','');
#91=MECHANICAL_CONTEXT(' ',#93,'mechanical');
#92=APPLICATION_PROTOCOL_DEFINITION('international standard',
'config_control_design',1994,#93);
#93=APPLICATION_CONTEXT(
'configuration controlled 3D designs of mechanical parts and assemblies
');
#94=SHAPE_REPRESENTATION('Admi80E8vqto-None',(#229),#341);
#95=MANIFOLD_SOLID_BREP('',#96);
#96=CLOSED_SHELL('',(#106,#107,#108,#109,#110,#111,#112,#113,#114,#115,#116,
#117));
#97=CYLINDRICAL_SURFACE('',#240,23.);
#98=CYLINDRICAL_SURFACE('',#242,194.011940063852);
#99=CYLINDRICAL_SURFACE('',#251,188.011940063852);
#100=CONICAL_SURFACE('',#237,185.111182972672,88.1042541836361);
#101=CONICAL_SURFACE('',#239,34.,44.9999999999998);
#102=CONICAL_SURFACE('',#246,199.553571428572,2.5561500785785);
#103=TOROIDAL_SURFACE('',#235,185.011940063852,3.);
#104=TOROIDAL_SURFACE('',#252,192.130940582401,3.);
#105=TOROIDAL_SURFACE('',#253,191.011940063852,3.);
#106=ADVANCED_FACE('',(#139,#121),#118,.T.);
#107=ADVANCED_FACE('',(#122,#123),#103,.F.);
#108=ADVANCED_FACE('',(#124,#140),#100,.F.);
#109=ADVANCED_FACE('',(#125,#141),#101,.F.);
#110=ADVANCED_FACE('',(#126,#127),#97,.F.);
#111=ADVANCED_FACE('',(#128,#129),#98,.T.);
#112=ADVANCED_FACE('',(#142,#130),#119,.T.);
#113=ADVANCED_FACE('',(#131,#143),#102,.T.);
#114=ADVANCED_FACE('',(#132,#144),#120,.T.);
#115=ADVANCED_FACE('',(#133,#134),#99,.F.);
#116=ADVANCED_FACE('',(#135,#136),#104,.T.);
#117=ADVANCED_FACE('',(#137,#138),#105,.T.);
#118=PLANE('',#232);
#119=PLANE('',#244);
#120=PLANE('',#249);
#121=FACE_BOUND('',#146,.T.);
#122=FACE_BOUND('',#147,.T.);
#123=FACE_BOUND('',#148,.T.);
#124=FACE_BOUND('',#149,.T.);
#125=FACE_BOUND('',#151,.T.);
#126=FACE_BOUND('',#153,.T.);
#127=FACE_BOUND('',#154,.T.);
#128=FACE_BOUND('',#155,.T.);
#129=FACE_BOUND('',#156,.T.);
#130=FACE_BOUND('',#158,.T.);
#131=FACE_BOUND('',#159,.T.);
#132=FACE_BOUND('',#161,.T.);
#133=FACE_BOUND('',#163,.T.);
#134=FACE_BOUND('',#164,.T.);
#135=FACE_BOUND('',#165,.T.);
#136=FACE_BOUND('',#166,.T.);
#137=FACE_BOUND('',#167,.T.);
#138=FACE_BOUND('',#168,.T.);
#139=FACE_OUTER_BOUND('',#145,.T.);
#140=FACE_OUTER_BOUND('',#150,.T.);
#141=FACE_OUTER_BOUND('',#152,.T.);
#142=FACE_OUTER_BOUND('',#157,.T.);
#143=FACE_OUTER_BOUND('',#160,.T.);
#144=FACE_OUTER_BOUND('',#162,.T.);
#145=EDGE_LOOP('',(#169));
#146=EDGE_LOOP('',(#170));
#147=EDGE_LOOP('',(#171));
#148=EDGE_LOOP('',(#172));
#149=EDGE_LOOP('',(#173));
#150=EDGE_LOOP('',(#174));
#151=EDGE_LOOP('',(#175));
#152=EDGE_LOOP('',(#176));
#153=EDGE_LOOP('',(#177));
#154=EDGE_LOOP('',(#178));
#155=EDGE_LOOP('',(#179));
#156=EDGE_LOOP('',(#180));
#157=EDGE_LOOP('',(#181));
#158=EDGE_LOOP('',(#182));
#159=EDGE_LOOP('',(#183));
#160=EDGE_LOOP('',(#184));
#161=EDGE_LOOP('',(#185));
#162=EDGE_LOOP('',(#186));
#163=EDGE_LOOP('',(#187));
#164=EDGE_LOOP('',(#188));
#165=EDGE_LOOP('',(#189));
#166=EDGE_LOOP('',(#190));
#167=EDGE_LOOP('',(#191));
#168=EDGE_LOOP('',(#192));
#169=ORIENTED_EDGE('',*,*,#205,.T.);
#170=ORIENTED_EDGE('',*,*,#206,.T.);
#171=ORIENTED_EDGE('',*,*,#207,.T.);
#172=ORIENTED_EDGE('',*,*,#208,.F.);
#173=ORIENTED_EDGE('',*,*,#209,.T.);
#174=ORIENTED_EDGE('',*,*,#207,.F.);
#175=ORIENTED_EDGE('',*,*,#210,.T.);
#176=ORIENTED_EDGE('',*,*,#209,.F.);
#177=ORIENTED_EDGE('',*,*,#210,.F.);
#178=ORIENTED_EDGE('',*,*,#206,.F.);
#179=ORIENTED_EDGE('',*,*,#211,.T.);
#180=ORIENTED_EDGE('',*,*,#205,.F.);
#181=ORIENTED_EDGE('',*,*,#212,.T.);
#182=ORIENTED_EDGE('',*,*,#211,.F.);
#183=ORIENTED_EDGE('',*,*,#213,.T.);
#184=ORIENTED_EDGE('',*,*,#212,.F.);
#185=ORIENTED_EDGE('',*,*,#214,.T.);
#186=ORIENTED_EDGE('',*,*,#215,.T.);
#187=ORIENTED_EDGE('',*,*,#216,.T.);
#188=ORIENTED_EDGE('',*,*,#208,.T.);
#189=ORIENTED_EDGE('',*,*,#215,.F.);
#190=ORIENTED_EDGE('',*,*,#213,.F.);
#191=ORIENTED_EDGE('',*,*,#216,.F.);
#192=ORIENTED_EDGE('',*,*,#214,.F.);
#193=VERTEX_POINT('',#306);
#194=VERTEX_POINT('',#308);
#195=VERTEX_POINT('',#311);
#196=VERTEX_POINT('',#313);
#197=VERTEX_POINT('',#316);
#198=VERTEX_POINT('',#319);
#199=VERTEX_POINT('',#323);
#200=VERTEX_POINT('',#326);
#201=VERTEX_POINT('',#329);
#202=VERTEX_POINT('',#332);
#203=VERTEX_POINT('',#334);
#204=VERTEX_POINT('',#337);
#205=EDGE_CURVE('',#193,#193,#217,.T.);
#206=EDGE_CURVE('',#194,#194,#218,.T.);
#207=EDGE_CURVE('',#195,#195,#219,.T.);
#208=EDGE_CURVE('',#196,#196,#220,.T.);
#209=EDGE_CURVE('',#197,#197,#221,.T.);
#210=EDGE_CURVE('',#198,#198,#222,.T.);
#211=EDGE_CURVE('',#199,#199,#223,.T.);
#212=EDGE_CURVE('',#200,#200,#224,.T.);
#213=EDGE_CURVE('',#201,#201,#225,.T.);
#214=EDGE_CURVE('',#202,#202,#226,.T.);
#215=EDGE_CURVE('',#203,#203,#227,.T.);
#216=EDGE_CURVE('',#204,#204,#228,.T.);
#217=CIRCLE('',#230,194.011940063852);
#218=CIRCLE('',#231,23.);
#219=CIRCLE('',#233,185.111182972672);
#220=CIRCLE('',#234,188.011940063852);
#221=CIRCLE('',#236,34.);
#222=CIRCLE('',#238,23.);
#223=CIRCLE('',#241,194.011940063852);
#224=CIRCLE('',#243,199.553571428572);
#225=CIRCLE('',#245,195.127955566438);
#226=CIRCLE('',#247,191.011940063852);
#227=CIRCLE('',#248,192.130940582401);
#228=CIRCLE('',#250,188.011940063852);
#229=AXIS2_PLACEMENT_3D('',#304,#254,#255);
#230=AXIS2_PLACEMENT_3D('',#305,#256,#257);
#231=AXIS2_PLACEMENT_3D('',#307,#258,#259);
#232=AXIS2_PLACEMENT_3D('',#309,#260,#261);
#233=AXIS2_PLACEMENT_3D('',#310,#262,#263);
#234=AXIS2_PLACEMENT_3D('',#312,#264,#265);
#235=AXIS2_PLACEMENT_3D('',#314,#266,#267);
#236=AXIS2_PLACEMENT_3D('',#315,#268,#269);
#237=AXIS2_PLACEMENT_3D('',#317,#270,#271);
#238=AXIS2_PLACEMENT_3D('',#318,#272,#273);
#239=AXIS2_PLACEMENT_3D('',#320,#274,#275);
#240=AXIS2_PLACEMENT_3D('',#321,#276,#277);
#241=AXIS2_PLACEMENT_3D('',#322,#278,#279);
#242=AXIS2_PLACEMENT_3D('',#324,#280,#281);
#243=AXIS2_PLACEMENT_3D('',#325,#282,#283);
#244=AXIS2_PLACEMENT_3D('',#327,#284,#285);
#245=AXIS2_PLACEMENT_3D('',#328,#286,#287);
#246=AXIS2_PLACEMENT_3D('',#330,#288,#289);
#247=AXIS2_PLACEMENT_3D('',#331,#290,#291);
#248=AXIS2_PLACEMENT_3D('',#333,#292,#293);
#249=AXIS2_PLACEMENT_3D('',#335,#294,#295);
#250=AXIS2_PLACEMENT_3D('',#336,#296,#297);
#251=AXIS2_PLACEMENT_3D('',#338,#298,#299);
#252=AXIS2_PLACEMENT_3D('',#339,#300,#301);
#253=AXIS2_PLACEMENT_3D('',#340,#302,#303);
#254=DIRECTION('',(0.,0.,1.));
#255=DIRECTION('',(1.,0.,0.));
#256=DIRECTION('',(-1.26318708579573E-015,0.,-1.));
#257=DIRECTION('',(-1.,0.,1.26296191307134E-015));
#258=DIRECTION('',(1.26318708579573E-015,0.,1.));
#259=DIRECTION('',(-1.,0.,1.26333122707006E-015));
#260=DIRECTION('',(-1.26318708579573E-015,0.,-1.));
#261=DIRECTION('',(-1.,0.,1.26331237138011E-015));
#262=DIRECTION('',(-1.26318708579573E-015,0.,-1.));
#263=DIRECTION('',(-1.,0.,1.25574771900847E-015));
#264=DIRECTION('',(-1.26318708579573E-015,0.,-1.));
#265=DIRECTION('',(-1.,0.,1.25482664905603E-015));
#266=DIRECTION('',(-1.26318708579573E-015,0.,-1.));
#267=DIRECTION('',(-1.,0.,1.25482664905603E-015));
#268=DIRECTION('',(-1.26318708579573E-015,0.,-1.));
#269=DIRECTION('',(-1.,0.,1.27553196763E-015));
#270=DIRECTION('',(1.26318708579573E-015,0.,1.));
#271=DIRECTION('',(1.,0.,-1.26280300245567E-015));
#272=DIRECTION('',(-1.26318708579573E-015,0.,-1.));
#273=DIRECTION('',(-1.,0.,1.26333122707006E-015));
#274=DIRECTION('',(1.26318708579573E-015,0.,1.));
#275=DIRECTION('',(1.,0.,-1.30188144812187E-015));
#276=DIRECTION('',(-1.26318708579573E-015,0.,-1.));
#277=DIRECTION('',(-1.,0.,1.20676415720126E-015));
#278=DIRECTION('',(-1.26318708579573E-015,0.,-1.));
#279=DIRECTION('',(-1.,0.,1.26519724389093E-015));
#280=DIRECTION('',(-1.26318708579573E-015,0.,-1.));
#281=DIRECTION('',(-1.,0.,1.28755055208689E-015));
#282=DIRECTION('',(-1.26318708579573E-015,0.,-1.));
#283=DIRECTION('',(-1.,0.,1.26483462033637E-015));
#284=DIRECTION('',(-1.26318708579573E-015,0.,-1.));
#285=DIRECTION('',(-1.,0.,1.26287869051112E-015));
#286=DIRECTION('',(-1.26318708579573E-015,0.,-1.));
#287=DIRECTION('',(1.,0.,-1.28018653101506E-015));
#288=DIRECTION('',(-1.26318708579573E-015,0.,-1.));
#289=DIRECTION('',(-1.,0.,1.36393029716287E-015));
#290=DIRECTION('',(-1.26318708579573E-015,0.,-1.));
#291=DIRECTION('',(1.,0.,-1.2351185619809E-015));
#292=DIRECTION('',(1.26318708579573E-015,0.,1.));
#293=DIRECTION('',(1.,0.,-1.22792503913061E-015));
#294=DIRECTION('',(1.26318708579573E-015,0.,1.));
#295=DIRECTION('',(1.,0.,-1.26287869051112E-015));
#296=DIRECTION('',(1.26318708579573E-015,0.,1.));
#297=DIRECTION('',(1.,0.,-1.25482664905603E-015));
#298=DIRECTION('',(-1.26318708579573E-015,0.,-1.));
#299=DIRECTION('',(-1.,0.,1.32863998135344E-015));
#300=DIRECTION('',(1.26318708579573E-015,0.,1.));
#301=DIRECTION('',(1.,0.,-1.28016694735899E-015));
#302=DIRECTION('',(1.26318708579573E-015,0.,1.));
#303=DIRECTION('',(1.,0.,-1.28755055208689E-015));
#304=CARTESIAN_POINT('',(0.,0.,0.));
#305=CARTESIAN_POINT('',(211.6,0.,-2.19999999999976));
#306=CARTESIAN_POINT('',(17.5880599361485,0.,-2.19999999999951));
#307=CARTESIAN_POINT('',(211.6,0.,-2.19999999999987));
#308=CARTESIAN_POINT('',(188.6,0.,-2.19999999999984));
#309=CARTESIAN_POINT('',(234.6,0.,-2.19999999999991));
#310=CARTESIAN_POINT('',(211.6,0.,18.8016419751731));
#311=CARTESIAN_POINT('',(26.4888170273277,0.,18.8016419751733));
#312=CARTESIAN_POINT('',(211.6,0.,21.8000000000002));
#313=CARTESIAN_POINT('',(23.5880599361485,0.,21.8000000000005));
#314=CARTESIAN_POINT('',(211.6,0.,21.8000000000008));
#315=CARTESIAN_POINT('',(211.6,0.,13.8));
#316=CARTESIAN_POINT('',(177.6,0.,13.8000000000001));
#317=CARTESIAN_POINT('',(211.6,0.,18.8016419751731));
#318=CARTESIAN_POINT('',(211.6,0.,2.80000000000002));
#319=CARTESIAN_POINT('',(188.6,0.,2.80000000000005));
#320=CARTESIAN_POINT('',(211.6,0.,13.8));
#321=CARTESIAN_POINT('',(211.6,0.,132.8));
#322=CARTESIAN_POINT('',(211.6,0.,7.80000000000025));
#323=CARTESIAN_POINT('',(17.5880599361485,0.,7.8000000000005));
#324=CARTESIAN_POINT('',(211.6,0.,132.8));
#325=CARTESIAN_POINT('',(211.6,0.,7.80000000000025));
#326=CARTESIAN_POINT('',(12.0464285714281,0.,7.8000000000005));
#327=CARTESIAN_POINT('',(405.611940063852,0.,7.8));
#328=CARTESIAN_POINT('',(211.6,0.,106.933795311787));
#329=CARTESIAN_POINT('',(406.727955566438,0.,106.933795311787));
#330=CARTESIAN_POINT('',(211.6,0.,7.80000000000025));
#331=CARTESIAN_POINT('',(211.6,0.,109.8));
#332=CARTESIAN_POINT('',(402.611940063852,0.,109.8));
#333=CARTESIAN_POINT('',(211.6,0.,109.8));
#334=CARTESIAN_POINT('',(403.730940582401,0.,109.8));
#335=CARTESIAN_POINT('',(406.6,0.,109.799999999999));
#336=CARTESIAN_POINT('',(211.6,0.,106.8));
#337=CARTESIAN_POINT('',(399.611940063852,0.,106.799999999999));
#338=CARTESIAN_POINT('',(211.6,0.,132.8));
#339=CARTESIAN_POINT('',(211.6,0.,106.8));
#340=CARTESIAN_POINT('',(211.6,0.,106.8));
#341=(
GEOMETRIC_REPRESENTATION_CONTEXT(3)
GLOBAL_UNCERTAINTY_ASSIGNED_CONTEXT((#342))
GLOBAL_UNIT_ASSIGNED_CONTEXT((#348,#344,#343))
REPRESENTATION_CONTEXT('400-1','TOP_LEVEL_ASSEMBLY_PART')
);
#342=UNCERTAINTY_MEASURE_WITH_UNIT(LENGTH_MEASURE(2.E-005),#348,
'DISTANCE_ACCURACY_VALUE','Maximum Tolerance applied to model');
#343=(
NAMED_UNIT(*)
SI_UNIT($,.STERADIAN.)
SOLID_ANGLE_UNIT()
);
#344=(
CONVERSION_BASED_UNIT('DEGREE',#346)
NAMED_UNIT(#345)
PLANE_ANGLE_UNIT()
);
#345=DIMENSIONAL_EXPONENTS(0.,0.,0.,0.,0.,0.,0.);
#346=PLANE_ANGLE_MEASURE_WITH_UNIT(PLANE_ANGLE_MEASURE(0.0174532925),#347);
#347=(
NAMED_UNIT(*)
PLANE_ANGLE_UNIT()
SI_UNIT($,.RADIAN.)
);
#348=(
LENGTH_UNIT()
NAMED_UNIT(*)
SI_UNIT(.MILLI.,.METRE.)
);
ENDSEC;
END-ISO-10303-21;
