ISO-10303-21;
HEADER;
/* Generated by software containing ST-Developer
 * from STEP Tools, Inc. (www.steptools.com) 
 */

FILE_DESCRIPTION(
/* description */ (''),
/* implementation_level */ '2;1');

FILE_NAME(
/* name */ '1742',
/* time_stamp */ '2020-11-23T10:01:17+08:00',
/* author */ (''),
/* organization */ (''),
/* preprocessor_version */ 'ST-DEVELOPER v9',
/* originating_system */ 'UGS - NX 4.0',
/* authorisation */ '');

FILE_SCHEMA (('CONFIG_CONTROL_DESIGN'));
ENDSEC;

DATA;
#10=SHAPE_REPRESENTATION_RELATIONSHIP('None',
'relationship between AdmiC6CE87u5-None and AdmiC6CE87u5-None',#94,#11);
#11=ADVANCED_BREP_SHAPE_REPRESENTATION('AdmiC6CE87u5-None',(#95),#729);
#12=CC_DESIGN_APPROVAL(#24,(#82));
#13=CC_DESIGN_APPROVAL(#25,(#84));
#14=CC_DESIGN_APPROVAL(#26,(#31));
#15=APPROVAL_PERSON_ORGANIZATION(#69,#24,#18);
#16=APPROVAL_PERSON_ORGANIZATION(#70,#25,#19);
#17=APPROVAL_PERSON_ORGANIZATION(#71,#26,#20);
#18=APPROVAL_ROLE('approver');
#19=APPROVAL_ROLE('approver');
#20=APPROVAL_ROLE('approver');
#21=APPROVAL_DATE_TIME(#39,#24);
#22=APPROVAL_DATE_TIME(#40,#25);
#23=APPROVAL_DATE_TIME(#41,#26);
#24=APPROVAL(#27,' ');
#25=APPROVAL(#28,' ');
#26=APPROVAL(#29,' ');
#27=APPROVAL_STATUS('not_yet_approved');
#28=APPROVAL_STATUS('not_yet_approved');
#29=APPROVAL_STATUS('not_yet_approved');
#30=CC_DESIGN_SECURITY_CLASSIFICATION(#31,(#84));
#31=SECURITY_CLASSIFICATION(' ',' ',#32);
#32=SECURITY_CLASSIFICATION_LEVEL('confidential');
#33=CC_DESIGN_DATE_AND_TIME_ASSIGNMENT(#37,#35,(#82));
#34=CC_DESIGN_DATE_AND_TIME_ASSIGNMENT(#38,#36,(#31));
#35=DATE_TIME_ROLE('creation_date');
#36=DATE_TIME_ROLE('classification_date');
#37=DATE_AND_TIME(#52,#42);
#38=DATE_AND_TIME(#53,#43);
#39=DATE_AND_TIME(#54,#44);
#40=DATE_AND_TIME(#55,#45);
#41=DATE_AND_TIME(#56,#46);
#42=LOCAL_TIME(0,0,0.,#47);
#43=LOCAL_TIME(0,0,0.,#48);
#44=LOCAL_TIME(0,0,0.,#49);
#45=LOCAL_TIME(0,0,0.,#50);
#46=LOCAL_TIME(0,0,0.,#51);
#47=COORDINATED_UNIVERSAL_TIME_OFFSET(0,0,.BEHIND.);
#48=COORDINATED_UNIVERSAL_TIME_OFFSET(0,0,.BEHIND.);
#49=COORDINATED_UNIVERSAL_TIME_OFFSET(0,0,.BEHIND.);
#50=COORDINATED_UNIVERSAL_TIME_OFFSET(0,0,.BEHIND.);
#51=COORDINATED_UNIVERSAL_TIME_OFFSET(0,0,.BEHIND.);
#52=CALENDAR_DATE(0,1,1);
#53=CALENDAR_DATE(0,1,1);
#54=CALENDAR_DATE(0,1,1);
#55=CALENDAR_DATE(0,1,1);
#56=CALENDAR_DATE(0,1,1);
#57=CC_DESIGN_PERSON_AND_ORGANIZATION_ASSIGNMENT(#65,#61,(#82,#84));
#58=CC_DESIGN_PERSON_AND_ORGANIZATION_ASSIGNMENT(#66,#62,(#86));
#59=CC_DESIGN_PERSON_AND_ORGANIZATION_ASSIGNMENT(#67,#63,(#84));
#60=CC_DESIGN_PERSON_AND_ORGANIZATION_ASSIGNMENT(#68,#64,(#31));
#61=PERSON_AND_ORGANIZATION_ROLE('creator');
#62=PERSON_AND_ORGANIZATION_ROLE('design_owner');
#63=PERSON_AND_ORGANIZATION_ROLE('design_supplier');
#64=PERSON_AND_ORGANIZATION_ROLE('classification_officer');
#65=PERSON_AND_ORGANIZATION(#79,#72);
#66=PERSON_AND_ORGANIZATION(#79,#73);
#67=PERSON_AND_ORGANIZATION(#79,#74);
#68=PERSON_AND_ORGANIZATION(#79,#75);
#69=PERSON_AND_ORGANIZATION(#79,#76);
#70=PERSON_AND_ORGANIZATION(#79,#77);
#71=PERSON_AND_ORGANIZATION(#79,#78);
#72=ORGANIZATION(' ',' ',' ');
#73=ORGANIZATION(' ',' ',' ');
#74=ORGANIZATION(' ',' ',' ');
#75=ORGANIZATION(' ',' ',' ');
#76=ORGANIZATION(' ',' ',' ');
#77=ORGANIZATION(' ',' ',' ');
#78=ORGANIZATION(' ',' ',' ');
#79=PERSON(' ',' ',' ',(' '),$,$);
#80=SHAPE_DEFINITION_REPRESENTATION(#81,#94);
#81=PRODUCT_DEFINITION_SHAPE('','',#82);
#82=PRODUCT_DEFINITION(' ','',#84,#83);
#83=DESIGN_CONTEXT('',#93,'design');
#84=PRODUCT_DEFINITION_FORMATION_WITH_SPECIFIED_SOURCE(' ',' ',#86,.NOT_KNOWN.);
#85=PRODUCT_RELATED_PRODUCT_CATEGORY('detail','',(#86));
#86=PRODUCT('AdmiC6CE87u5','AdmiC6CE87u5',' ',(#91));
#87=PRODUCT_CATEGORY_RELATIONSHIP(' ',' ',#89,#90);
#88=PRODUCT_CATEGORY_RELATIONSHIP('','',#90,#85);
#89=PRODUCT_CATEGORY('part',' ');
#90=PRODUCT_CATEGORY(' ','');
#91=MECHANICAL_CONTEXT(' ',#93,'mechanical');
#92=APPLICATION_PROTOCOL_DEFINITION('international standard',
'config_control_design',1994,#93);
#93=APPLICATION_CONTEXT(
'configuration controlled 3D designs of mechanical parts and assemblies
');
#94=SHAPE_REPRESENTATION('AdmiC6CE87u5-None',(#459),#729);
#95=MANIFOLD_SOLID_BREP('',#96);
#96=CLOSED_SHELL('',(#129,#130,#131,#132,#133,#134,#135,#136,#137,#138,#139,
#140,#141,#142,#143,#144,#145,#146,#147,#148,#149));
#97=TOROIDAL_SURFACE('',#496,70.,3.);
#98=TOROIDAL_SURFACE('',#498,528.,3.);
#99=TOROIDAL_SURFACE('',#500,70.,3.);
#100=CYLINDRICAL_SURFACE('',#463,61.);
#101=CYLINDRICAL_SURFACE('',#466,537.);
#102=CYLINDRICAL_SURFACE('',#469,61.);
#103=CYLINDRICAL_SURFACE('',#485,73.);
#104=CYLINDRICAL_SURFACE('',#487,525.);
#105=CYLINDRICAL_SURFACE('',#489,73.);
#106=CYLINDRICAL_SURFACE('',#494,3.);
#107=CYLINDRICAL_SURFACE('',#501,3.);
#108=CIRCLE('',#461,61.);
#109=CIRCLE('',#462,61.);
#110=CIRCLE('',#464,537.);
#111=CIRCLE('',#465,537.);
#112=CIRCLE('',#467,61.);
#113=CIRCLE('',#468,61.);
#114=CIRCLE('',#471,3.);
#115=CIRCLE('',#473,73.);
#116=CIRCLE('',#474,525.);
#117=CIRCLE('',#475,73.);
#118=CIRCLE('',#477,3.);
#119=CIRCLE('',#479,70.);
#120=CIRCLE('',#480,528.);
#121=CIRCLE('',#481,70.);
#122=CIRCLE('',#484,73.);
#123=CIRCLE('',#486,525.);
#124=CIRCLE('',#488,73.);
#125=CIRCLE('',#493,3.);
#126=CIRCLE('',#495,3.);
#127=CIRCLE('',#497,3.);
#128=CIRCLE('',#499,3.);
#129=ADVANCED_FACE('',(#160),#150,.T.);
#130=ADVANCED_FACE('',(#161),#100,.F.);
#131=ADVANCED_FACE('',(#162),#101,.T.);
#132=ADVANCED_FACE('',(#163),#102,.F.);
#133=ADVANCED_FACE('',(#164),#151,.T.);
#134=ADVANCED_FACE('',(#165),#152,.T.);
#135=ADVANCED_FACE('',(#166),#153,.T.);
#136=ADVANCED_FACE('',(#167),#154,.F.);
#137=ADVANCED_FACE('',(#168),#155,.T.);
#138=ADVANCED_FACE('',(#169),#156,.F.);
#139=ADVANCED_FACE('',(#170),#103,.T.);
#140=ADVANCED_FACE('',(#171),#104,.F.);
#141=ADVANCED_FACE('',(#172),#105,.T.);
#142=ADVANCED_FACE('',(#173),#157,.F.);
#143=ADVANCED_FACE('',(#174),#158,.T.);
#144=ADVANCED_FACE('',(#175),#159,.F.);
#145=ADVANCED_FACE('',(#176),#106,.T.);
#146=ADVANCED_FACE('',(#177),#97,.T.);
#147=ADVANCED_FACE('',(#178),#98,.T.);
#148=ADVANCED_FACE('',(#179),#99,.T.);
#149=ADVANCED_FACE('',(#180),#107,.T.);
#150=PLANE('',#460);
#151=PLANE('',#470);
#152=PLANE('',#472);
#153=PLANE('',#476);
#154=PLANE('',#478);
#155=PLANE('',#482);
#156=PLANE('',#483);
#157=PLANE('',#490);
#158=PLANE('',#491);
#159=PLANE('',#492);
#160=FACE_OUTER_BOUND('',#181,.T.);
#161=FACE_OUTER_BOUND('',#182,.T.);
#162=FACE_OUTER_BOUND('',#183,.T.);
#163=FACE_OUTER_BOUND('',#184,.T.);
#164=FACE_OUTER_BOUND('',#185,.T.);
#165=FACE_OUTER_BOUND('',#186,.T.);
#166=FACE_OUTER_BOUND('',#187,.T.);
#167=FACE_OUTER_BOUND('',#188,.T.);
#168=FACE_OUTER_BOUND('',#189,.T.);
#169=FACE_OUTER_BOUND('',#190,.T.);
#170=FACE_OUTER_BOUND('',#191,.T.);
#171=FACE_OUTER_BOUND('',#192,.T.);
#172=FACE_OUTER_BOUND('',#193,.T.);
#173=FACE_OUTER_BOUND('',#194,.T.);
#174=FACE_OUTER_BOUND('',#195,.T.);
#175=FACE_OUTER_BOUND('',#196,.T.);
#176=FACE_OUTER_BOUND('',#197,.T.);
#177=FACE_OUTER_BOUND('',#198,.T.);
#178=FACE_OUTER_BOUND('',#199,.T.);
#179=FACE_OUTER_BOUND('',#200,.T.);
#180=FACE_OUTER_BOUND('',#201,.T.);
#181=EDGE_LOOP('',(#202,#203,#204,#205));
#182=EDGE_LOOP('',(#206,#207,#208,#209));
#183=EDGE_LOOP('',(#210,#211,#212,#213));
#184=EDGE_LOOP('',(#214,#215,#216,#217));
#185=EDGE_LOOP('',(#218,#219,#220,#221));
#186=EDGE_LOOP('',(#222,#223,#224,#225,#226,#227,#228));
#187=EDGE_LOOP('',(#229,#230,#231,#232,#233,#234,#235,#236,#237,#238,#239,
#240));
#188=EDGE_LOOP('',(#241,#242,#243,#244,#245,#246,#247));
#189=EDGE_LOOP('',(#248,#249,#250,#251,#252,#253,#254,#255));
#190=EDGE_LOOP('',(#256,#257,#258,#259));
#191=EDGE_LOOP('',(#260,#261,#262,#263));
#192=EDGE_LOOP('',(#264,#265,#266,#267));
#193=EDGE_LOOP('',(#268,#269,#270,#271));
#194=EDGE_LOOP('',(#272,#273,#274,#275));
#195=EDGE_LOOP('',(#276,#277,#278,#279));
#196=EDGE_LOOP('',(#280,#281,#282,#283,#284,#285,#286,#287));
#197=EDGE_LOOP('',(#288,#289,#290,#291));
#198=EDGE_LOOP('',(#292,#293,#294,#295));
#199=EDGE_LOOP('',(#296,#297,#298,#299));
#200=EDGE_LOOP('',(#300,#301,#302,#303));
#201=EDGE_LOOP('',(#304,#305,#306,#307));
#202=ORIENTED_EDGE('',*,*,#342,.T.);
#203=ORIENTED_EDGE('',*,*,#343,.T.);
#204=ORIENTED_EDGE('',*,*,#344,.F.);
#205=ORIENTED_EDGE('',*,*,#345,.T.);
#206=ORIENTED_EDGE('',*,*,#346,.T.);
#207=ORIENTED_EDGE('',*,*,#347,.T.);
#208=ORIENTED_EDGE('',*,*,#342,.F.);
#209=ORIENTED_EDGE('',*,*,#348,.T.);
#210=ORIENTED_EDGE('',*,*,#349,.T.);
#211=ORIENTED_EDGE('',*,*,#350,.T.);
#212=ORIENTED_EDGE('',*,*,#346,.F.);
#213=ORIENTED_EDGE('',*,*,#351,.T.);
#214=ORIENTED_EDGE('',*,*,#352,.T.);
#215=ORIENTED_EDGE('',*,*,#353,.T.);
#216=ORIENTED_EDGE('',*,*,#349,.F.);
#217=ORIENTED_EDGE('',*,*,#354,.T.);
#218=ORIENTED_EDGE('',*,*,#355,.T.);
#219=ORIENTED_EDGE('',*,*,#356,.T.);
#220=ORIENTED_EDGE('',*,*,#352,.F.);
#221=ORIENTED_EDGE('',*,*,#357,.T.);
#222=ORIENTED_EDGE('',*,*,#358,.T.);
#223=ORIENTED_EDGE('',*,*,#359,.T.);
#224=ORIENTED_EDGE('',*,*,#360,.T.);
#225=ORIENTED_EDGE('',*,*,#361,.F.);
#226=ORIENTED_EDGE('',*,*,#362,.T.);
#227=ORIENTED_EDGE('',*,*,#355,.F.);
#228=ORIENTED_EDGE('',*,*,#363,.F.);
#229=ORIENTED_EDGE('',*,*,#364,.T.);
#230=ORIENTED_EDGE('',*,*,#365,.T.);
#231=ORIENTED_EDGE('',*,*,#366,.T.);
#232=ORIENTED_EDGE('',*,*,#367,.T.);
#233=ORIENTED_EDGE('',*,*,#368,.T.);
#234=ORIENTED_EDGE('',*,*,#363,.T.);
#235=ORIENTED_EDGE('',*,*,#357,.F.);
#236=ORIENTED_EDGE('',*,*,#354,.F.);
#237=ORIENTED_EDGE('',*,*,#351,.F.);
#238=ORIENTED_EDGE('',*,*,#348,.F.);
#239=ORIENTED_EDGE('',*,*,#345,.F.);
#240=ORIENTED_EDGE('',*,*,#369,.F.);
#241=ORIENTED_EDGE('',*,*,#370,.F.);
#242=ORIENTED_EDGE('',*,*,#371,.T.);
#243=ORIENTED_EDGE('',*,*,#372,.F.);
#244=ORIENTED_EDGE('',*,*,#369,.T.);
#245=ORIENTED_EDGE('',*,*,#344,.T.);
#246=ORIENTED_EDGE('',*,*,#373,.T.);
#247=ORIENTED_EDGE('',*,*,#374,.T.);
#248=ORIENTED_EDGE('',*,*,#360,.F.);
#249=ORIENTED_EDGE('',*,*,#375,.T.);
#250=ORIENTED_EDGE('',*,*,#376,.T.);
#251=ORIENTED_EDGE('',*,*,#377,.T.);
#252=ORIENTED_EDGE('',*,*,#378,.T.);
#253=ORIENTED_EDGE('',*,*,#379,.T.);
#254=ORIENTED_EDGE('',*,*,#370,.T.);
#255=ORIENTED_EDGE('',*,*,#380,.T.);
#256=ORIENTED_EDGE('',*,*,#372,.T.);
#257=ORIENTED_EDGE('',*,*,#381,.T.);
#258=ORIENTED_EDGE('',*,*,#382,.F.);
#259=ORIENTED_EDGE('',*,*,#364,.F.);
#260=ORIENTED_EDGE('',*,*,#382,.T.);
#261=ORIENTED_EDGE('',*,*,#383,.T.);
#262=ORIENTED_EDGE('',*,*,#384,.F.);
#263=ORIENTED_EDGE('',*,*,#365,.F.);
#264=ORIENTED_EDGE('',*,*,#384,.T.);
#265=ORIENTED_EDGE('',*,*,#385,.T.);
#266=ORIENTED_EDGE('',*,*,#386,.F.);
#267=ORIENTED_EDGE('',*,*,#366,.F.);
#268=ORIENTED_EDGE('',*,*,#386,.T.);
#269=ORIENTED_EDGE('',*,*,#387,.T.);
#270=ORIENTED_EDGE('',*,*,#388,.F.);
#271=ORIENTED_EDGE('',*,*,#367,.F.);
#272=ORIENTED_EDGE('',*,*,#388,.T.);
#273=ORIENTED_EDGE('',*,*,#389,.T.);
#274=ORIENTED_EDGE('',*,*,#358,.F.);
#275=ORIENTED_EDGE('',*,*,#368,.F.);
#276=ORIENTED_EDGE('',*,*,#380,.F.);
#277=ORIENTED_EDGE('',*,*,#374,.F.);
#278=ORIENTED_EDGE('',*,*,#390,.T.);
#279=ORIENTED_EDGE('',*,*,#361,.T.);
#280=ORIENTED_EDGE('',*,*,#343,.F.);
#281=ORIENTED_EDGE('',*,*,#347,.F.);
#282=ORIENTED_EDGE('',*,*,#350,.F.);
#283=ORIENTED_EDGE('',*,*,#353,.F.);
#284=ORIENTED_EDGE('',*,*,#356,.F.);
#285=ORIENTED_EDGE('',*,*,#362,.F.);
#286=ORIENTED_EDGE('',*,*,#390,.F.);
#287=ORIENTED_EDGE('',*,*,#373,.F.);
#288=ORIENTED_EDGE('',*,*,#371,.F.);
#289=ORIENTED_EDGE('',*,*,#379,.F.);
#290=ORIENTED_EDGE('',*,*,#391,.F.);
#291=ORIENTED_EDGE('',*,*,#381,.F.);
#292=ORIENTED_EDGE('',*,*,#391,.T.);
#293=ORIENTED_EDGE('',*,*,#378,.F.);
#294=ORIENTED_EDGE('',*,*,#392,.F.);
#295=ORIENTED_EDGE('',*,*,#383,.F.);
#296=ORIENTED_EDGE('',*,*,#392,.T.);
#297=ORIENTED_EDGE('',*,*,#377,.F.);
#298=ORIENTED_EDGE('',*,*,#393,.F.);
#299=ORIENTED_EDGE('',*,*,#385,.F.);
#300=ORIENTED_EDGE('',*,*,#393,.T.);
#301=ORIENTED_EDGE('',*,*,#376,.F.);
#302=ORIENTED_EDGE('',*,*,#394,.F.);
#303=ORIENTED_EDGE('',*,*,#387,.F.);
#304=ORIENTED_EDGE('',*,*,#394,.T.);
#305=ORIENTED_EDGE('',*,*,#375,.F.);
#306=ORIENTED_EDGE('',*,*,#359,.F.);
#307=ORIENTED_EDGE('',*,*,#389,.F.);
#308=VERTEX_POINT('',#622);
#309=VERTEX_POINT('',#623);
#310=VERTEX_POINT('',#625);
#311=VERTEX_POINT('',#627);
#312=VERTEX_POINT('',#631);
#313=VERTEX_POINT('',#632);
#314=VERTEX_POINT('',#637);
#315=VERTEX_POINT('',#638);
#316=VERTEX_POINT('',#643);
#317=VERTEX_POINT('',#644);
#318=VERTEX_POINT('',#649);
#319=VERTEX_POINT('',#650);
#320=VERTEX_POINT('',#655);
#321=VERTEX_POINT('',#656);
#322=VERTEX_POINT('',#658);
#323=VERTEX_POINT('',#660);
#324=VERTEX_POINT('',#662);
#325=VERTEX_POINT('',#667);
#326=VERTEX_POINT('',#668);
#327=VERTEX_POINT('',#670);
#328=VERTEX_POINT('',#672);
#329=VERTEX_POINT('',#674);
#330=VERTEX_POINT('',#679);
#331=VERTEX_POINT('',#680);
#332=VERTEX_POINT('',#682);
#333=VERTEX_POINT('',#685);
#334=VERTEX_POINT('',#689);
#335=VERTEX_POINT('',#691);
#336=VERTEX_POINT('',#693);
#337=VERTEX_POINT('',#695);
#338=VERTEX_POINT('',#700);
#339=VERTEX_POINT('',#704);
#340=VERTEX_POINT('',#708);
#341=VERTEX_POINT('',#712);
#342=EDGE_CURVE('',#308,#309,#395,.T.);
#343=EDGE_CURVE('',#309,#310,#396,.T.);
#344=EDGE_CURVE('',#311,#310,#397,.T.);
#345=EDGE_CURVE('',#311,#308,#398,.T.);
#346=EDGE_CURVE('',#312,#313,#399,.T.);
#347=EDGE_CURVE('',#313,#309,#108,.T.);
#348=EDGE_CURVE('',#308,#312,#109,.T.);
#349=EDGE_CURVE('',#314,#315,#400,.T.);
#350=EDGE_CURVE('',#315,#313,#110,.T.);
#351=EDGE_CURVE('',#312,#314,#111,.T.);
#352=EDGE_CURVE('',#316,#317,#401,.T.);
#353=EDGE_CURVE('',#317,#315,#112,.T.);
#354=EDGE_CURVE('',#314,#316,#113,.T.);
#355=EDGE_CURVE('',#318,#319,#402,.T.);
#356=EDGE_CURVE('',#319,#317,#403,.T.);
#357=EDGE_CURVE('',#316,#318,#404,.T.);
#358=EDGE_CURVE('',#320,#321,#405,.T.);
#359=EDGE_CURVE('',#321,#322,#114,.T.);
#360=EDGE_CURVE('',#322,#323,#406,.T.);
#361=EDGE_CURVE('',#324,#323,#407,.T.);
#362=EDGE_CURVE('',#324,#319,#408,.T.);
#363=EDGE_CURVE('',#320,#318,#409,.T.);
#364=EDGE_CURVE('',#325,#326,#410,.T.);
#365=EDGE_CURVE('',#326,#327,#115,.T.);
#366=EDGE_CURVE('',#327,#328,#116,.T.);
#367=EDGE_CURVE('',#328,#329,#117,.T.);
#368=EDGE_CURVE('',#329,#320,#411,.T.);
#369=EDGE_CURVE('',#325,#311,#412,.T.);
#370=EDGE_CURVE('',#330,#331,#413,.T.);
#371=EDGE_CURVE('',#330,#332,#118,.T.);
#372=EDGE_CURVE('',#325,#332,#414,.T.);
#373=EDGE_CURVE('',#310,#333,#415,.T.);
#374=EDGE_CURVE('',#333,#331,#416,.T.);
#375=EDGE_CURVE('',#322,#334,#417,.T.);
#376=EDGE_CURVE('',#334,#335,#119,.T.);
#377=EDGE_CURVE('',#335,#336,#120,.T.);
#378=EDGE_CURVE('',#336,#337,#121,.T.);
#379=EDGE_CURVE('',#337,#330,#418,.T.);
#380=EDGE_CURVE('',#331,#323,#419,.T.);
#381=EDGE_CURVE('',#332,#338,#420,.T.);
#382=EDGE_CURVE('',#326,#338,#421,.T.);
#383=EDGE_CURVE('',#338,#339,#122,.T.);
#384=EDGE_CURVE('',#327,#339,#422,.T.);
#385=EDGE_CURVE('',#339,#340,#123,.T.);
#386=EDGE_CURVE('',#328,#340,#423,.T.);
#387=EDGE_CURVE('',#340,#341,#124,.T.);
#388=EDGE_CURVE('',#329,#341,#424,.T.);
#389=EDGE_CURVE('',#341,#321,#425,.T.);
#390=EDGE_CURVE('',#333,#324,#426,.T.);
#391=EDGE_CURVE('',#338,#337,#125,.T.);
#392=EDGE_CURVE('',#339,#336,#126,.T.);
#393=EDGE_CURVE('',#340,#335,#127,.T.);
#394=EDGE_CURVE('',#341,#334,#128,.T.);
#395=LINE('',#621,#427);
#396=LINE('',#624,#428);
#397=LINE('',#626,#429);
#398=LINE('',#628,#430);
#399=LINE('',#630,#431);
#400=LINE('',#636,#432);
#401=LINE('',#642,#433);
#402=LINE('',#648,#434);
#403=LINE('',#651,#435);
#404=LINE('',#652,#436);
#405=LINE('',#654,#437);
#406=LINE('',#659,#438);
#407=LINE('',#661,#439);
#408=LINE('',#663,#440);
#409=LINE('',#664,#441);
#410=LINE('',#666,#442);
#411=LINE('',#675,#443);
#412=LINE('',#676,#444);
#413=LINE('',#678,#445);
#414=LINE('',#683,#446);
#415=LINE('',#684,#447);
#416=LINE('',#686,#448);
#417=LINE('',#688,#449);
#418=LINE('',#696,#450);
#419=LINE('',#697,#451);
#420=LINE('',#699,#452);
#421=LINE('',#701,#453);
#422=LINE('',#705,#454);
#423=LINE('',#709,#455);
#424=LINE('',#713,#456);
#425=LINE('',#715,#457);
#426=LINE('',#717,#458);
#427=VECTOR('',#504,1.);
#428=VECTOR('',#505,1.);
#429=VECTOR('',#506,1.);
#430=VECTOR('',#507,1.);
#431=VECTOR('',#510,1.);
#432=VECTOR('',#517,1.);
#433=VECTOR('',#524,1.);
#434=VECTOR('',#531,1.);
#435=VECTOR('',#532,1.);
#436=VECTOR('',#533,1.);
#437=VECTOR('',#536,1.);
#438=VECTOR('',#539,1.);
#439=VECTOR('',#540,1.);
#440=VECTOR('',#541,1.);
#441=VECTOR('',#542,1.);
#442=VECTOR('',#545,1.);
#443=VECTOR('',#552,1.);
#444=VECTOR('',#553,1.);
#445=VECTOR('',#556,1.);
#446=VECTOR('',#559,1.);
#447=VECTOR('',#560,1.);
#448=VECTOR('',#561,1.);
#449=VECTOR('',#564,1.);
#450=VECTOR('',#571,1.);
#451=VECTOR('',#572,1.);
#452=VECTOR('',#575,1.);
#453=VECTOR('',#576,1.);
#454=VECTOR('',#581,1.);
#455=VECTOR('',#586,1.);
#456=VECTOR('',#591,1.);
#457=VECTOR('',#594,1.);
#458=VECTOR('',#597,1.);
#459=AXIS2_PLACEMENT_3D('',#620,#502,#503);
#460=AXIS2_PLACEMENT_3D('',#629,#508,#509);
#461=AXIS2_PLACEMENT_3D('',#633,#511,#512);
#462=AXIS2_PLACEMENT_3D('',#634,#513,#514);
#463=AXIS2_PLACEMENT_3D('',#635,#515,#516);
#464=AXIS2_PLACEMENT_3D('',#639,#518,#519);
#465=AXIS2_PLACEMENT_3D('',#640,#520,#521);
#466=AXIS2_PLACEMENT_3D('',#641,#522,#523);
#467=AXIS2_PLACEMENT_3D('',#645,#525,#526);
#468=AXIS2_PLACEMENT_3D('',#646,#527,#528);
#469=AXIS2_PLACEMENT_3D('',#647,#529,#530);
#470=AXIS2_PLACEMENT_3D('',#653,#534,#535);
#471=AXIS2_PLACEMENT_3D('',#657,#537,#538);
#472=AXIS2_PLACEMENT_3D('',#665,#543,#544);
#473=AXIS2_PLACEMENT_3D('',#669,#546,#547);
#474=AXIS2_PLACEMENT_3D('',#671,#548,#549);
#475=AXIS2_PLACEMENT_3D('',#673,#550,#551);
#476=AXIS2_PLACEMENT_3D('',#677,#554,#555);
#477=AXIS2_PLACEMENT_3D('',#681,#557,#558);
#478=AXIS2_PLACEMENT_3D('',#687,#562,#563);
#479=AXIS2_PLACEMENT_3D('',#690,#565,#566);
#480=AXIS2_PLACEMENT_3D('',#692,#567,#568);
#481=AXIS2_PLACEMENT_3D('',#694,#569,#570);
#482=AXIS2_PLACEMENT_3D('',#698,#573,#574);
#483=AXIS2_PLACEMENT_3D('',#702,#577,#578);
#484=AXIS2_PLACEMENT_3D('',#703,#579,#580);
#485=AXIS2_PLACEMENT_3D('',#706,#582,#583);
#486=AXIS2_PLACEMENT_3D('',#707,#584,#585);
#487=AXIS2_PLACEMENT_3D('',#710,#587,#588);
#488=AXIS2_PLACEMENT_3D('',#711,#589,#590);
#489=AXIS2_PLACEMENT_3D('',#714,#592,#593);
#490=AXIS2_PLACEMENT_3D('',#716,#595,#596);
#491=AXIS2_PLACEMENT_3D('',#718,#598,#599);
#492=AXIS2_PLACEMENT_3D('',#719,#600,#601);
#493=AXIS2_PLACEMENT_3D('',#720,#602,#603);
#494=AXIS2_PLACEMENT_3D('',#721,#604,#605);
#495=AXIS2_PLACEMENT_3D('',#722,#606,#607);
#496=AXIS2_PLACEMENT_3D('',#723,#608,#609);
#497=AXIS2_PLACEMENT_3D('',#724,#610,#611);
#498=AXIS2_PLACEMENT_3D('',#725,#612,#613);
#499=AXIS2_PLACEMENT_3D('',#726,#614,#615);
#500=AXIS2_PLACEMENT_3D('',#727,#616,#617);
#501=AXIS2_PLACEMENT_3D('',#728,#618,#619);
#502=DIRECTION('',(0.,0.,1.));
#503=DIRECTION('',(1.,0.,0.));
#504=DIRECTION('',(0.,-1.,0.));
#505=DIRECTION('',(-1.,0.,0.));
#506=DIRECTION('',(0.,-1.,0.));
#507=DIRECTION('',(1.,0.,0.));
#508=DIRECTION('',(0.,0.,-1.));
#509=DIRECTION('',(-1.,0.,0.));
#510=DIRECTION('',(0.,-1.,0.));
#511=DIRECTION('',(0.,-1.,0.));
#512=DIRECTION('',(0.,0.,-1.));
#513=DIRECTION('',(0.,1.,0.));
#514=DIRECTION('',(0.,0.,-1.));
#515=DIRECTION('',(0.,-1.,0.));
#516=DIRECTION('',(0.,0.,-1.));
#517=DIRECTION('',(0.,-1.,0.));
#518=DIRECTION('',(0.,1.,0.));
#519=DIRECTION('',(0.,0.,-1.));
#520=DIRECTION('',(0.,-1.,0.));
#521=DIRECTION('',(0.,0.,-1.));
#522=DIRECTION('',(0.,-1.,0.));
#523=DIRECTION('',(0.,0.,-1.));
#524=DIRECTION('',(0.,-1.,0.));
#525=DIRECTION('',(0.,-1.,0.));
#526=DIRECTION('',(0.,0.,-1.));
#527=DIRECTION('',(0.,1.,0.));
#528=DIRECTION('',(0.,0.,-1.));
#529=DIRECTION('',(0.,-1.,0.));
#530=DIRECTION('',(0.,0.,-1.));
#531=DIRECTION('',(0.,-1.,0.));
#532=DIRECTION('',(-1.,0.,0.));
#533=DIRECTION('',(1.,0.,0.));
#534=DIRECTION('',(0.,0.,-1.));
#535=DIRECTION('',(-1.,0.,0.));
#536=DIRECTION('',(0.,-1.,0.));
#537=DIRECTION('',(1.,0.,0.));
#538=DIRECTION('',(0.,0.,-1.));
#539=DIRECTION('',(0.,0.,-1.));
#540=DIRECTION('',(0.,-1.,0.));
#541=DIRECTION('',(1.48029736616688E-015,0.,1.));
#542=DIRECTION('',(0.,0.,-1.));
#543=DIRECTION('',(1.,0.,0.));
#544=DIRECTION('',(0.,-1.,0.));
#545=DIRECTION('',(1.,0.,0.));
#546=DIRECTION('',(0.,1.,0.));
#547=DIRECTION('',(1.,0.,9.50533411494141E-017));
#548=DIRECTION('',(0.,-1.,0.));
#549=DIRECTION('',(1.,0.,-1.05735526154777E-016));
#550=DIRECTION('',(0.,1.,0.));
#551=DIRECTION('',(0.999999999999999,0.,9.50533411494141E-017));
#552=DIRECTION('',(1.,0.,0.));
#553=DIRECTION('',(0.,0.,-1.));
#554=DIRECTION('',(0.,1.,0.));
#555=DIRECTION('',(1.,0.,0.));
#556=DIRECTION('',(0.,0.,-1.));
#557=DIRECTION('',(-1.,0.,0.));
#558=DIRECTION('',(0.,0.,-1.));
#559=DIRECTION('',(0.,-1.,0.));
#560=DIRECTION('',(-1.94289029309402E-015,0.,-1.));
#561=DIRECTION('',(0.,-1.,0.));
#562=DIRECTION('',(1.,0.,0.));
#563=DIRECTION('',(0.,-1.,0.));
#564=DIRECTION('',(-1.,0.,0.));
#565=DIRECTION('',(0.,-1.,0.));
#566=DIRECTION('',(0.,0.,-1.));
#567=DIRECTION('',(0.,1.,0.));
#568=DIRECTION('',(0.,0.,-1.));
#569=DIRECTION('',(0.,-1.,0.));
#570=DIRECTION('',(0.,0.,-1.));
#571=DIRECTION('',(-1.,0.,0.));
#572=DIRECTION('',(1.,0.,-1.0100225030019E-015));
#573=DIRECTION('',(0.,-1.,0.));
#574=DIRECTION('',(0.,0.,-1.));
#575=DIRECTION('',(1.,0.,0.));
#576=DIRECTION('',(0.,-1.,0.));
#577=DIRECTION('',(0.,0.,-1.));
#578=DIRECTION('',(-1.,0.,0.));
#579=DIRECTION('',(0.,1.,0.));
#580=DIRECTION('',(0.,0.,-1.));
#581=DIRECTION('',(0.,-1.,0.));
#582=DIRECTION('',(0.,-1.,0.));
#583=DIRECTION('',(0.,0.,-1.));
#584=DIRECTION('',(0.,-1.,0.));
#585=DIRECTION('',(0.,0.,-1.));
#586=DIRECTION('',(0.,-1.,0.));
#587=DIRECTION('',(0.,-1.,0.));
#588=DIRECTION('',(0.,0.,-1.));
#589=DIRECTION('',(0.,1.,0.));
#590=DIRECTION('',(0.,0.,-1.));
#591=DIRECTION('',(0.,-1.,0.));
#592=DIRECTION('',(0.,-1.,0.));
#593=DIRECTION('',(0.,0.,-1.));
#594=DIRECTION('',(1.,0.,0.));
#595=DIRECTION('',(0.,0.,-1.));
#596=DIRECTION('',(-1.,0.,0.));
#597=DIRECTION('',(1.,0.,-1.0100225030019E-015));
#598=DIRECTION('',(-1.0100225030019E-015,0.,-1.));
#599=DIRECTION('',(-1.,0.,1.01307850997046E-015));
#600=DIRECTION('',(0.,-1.,0.));
#601=DIRECTION('',(0.,0.,-1.));
#602=DIRECTION('',(1.,0.,0.));
#603=DIRECTION('',(0.,0.,-1.));
#604=DIRECTION('',(-1.,0.,0.));
#605=DIRECTION('',(0.,0.,1.));
#606=DIRECTION('',(0.90448229262651,-1.72638421173601E-015,-0.426511174912326));
#607=DIRECTION('',(-0.426511174912325,0.,-0.90448229262651));
#608=DIRECTION('',(0.,-1.,0.));
#609=DIRECTION('',(0.,0.,-1.));
#610=DIRECTION('',(0.904482292626496,1.97301052769843E-014,0.426511174912356));
#611=DIRECTION('',(0.426511174912362,0.,-0.904482292626496));
#612=DIRECTION('',(0.,-1.,0.));
#613=DIRECTION('',(0.,0.,-1.));
#614=DIRECTION('',(1.,0.,0.));
#615=DIRECTION('',(0.,0.,-1.));
#616=DIRECTION('',(0.,-1.,0.));
#617=DIRECTION('',(0.,0.,-1.));
#618=DIRECTION('',(-1.,0.,0.));
#619=DIRECTION('',(0.,0.,1.));
#620=CARTESIAN_POINT('',(0.,0.,0.));
#621=CARTESIAN_POINT('',(550.091065426016,0.,13.0000000000001));
#622=CARTESIAN_POINT('',(550.091065426016,0.,13.0000000000001));
#623=CARTESIAN_POINT('',(550.091065426016,-738.,13.0000000000001));
#624=CARTESIAN_POINT('',(-33.,-738.,13.));
#625=CARTESIAN_POINT('',(-33.,-738.,13.));
#626=CARTESIAN_POINT('',(-33.,0.,13.));
#627=CARTESIAN_POINT('',(-33.,0.,13.));
#628=CARTESIAN_POINT('',(-33.,0.,13.));
#629=CARTESIAN_POINT('',(-33.,0.,13.));
#630=CARTESIAN_POINT('',(576.108247095668,0.,7.17341985021713));
#631=CARTESIAN_POINT('',(576.108247095668,0.,7.17341985021713));
#632=CARTESIAN_POINT('',(576.108247095668,-738.,7.17341985021702));
#633=CARTESIAN_POINT('',(550.091065426016,-738.,-47.9999999999999));
#634=CARTESIAN_POINT('',(550.091065426016,0.,-47.9999999999999));
#635=CARTESIAN_POINT('',(550.091065426016,0.,-47.9999999999999));
#636=CARTESIAN_POINT('',(1034.18124895151,0.,7.1734198502166));
#637=CARTESIAN_POINT('',(1034.18124895151,0.,7.1734198502166));
#638=CARTESIAN_POINT('',(1034.18124895151,-738.,7.17341985021658));
#639=CARTESIAN_POINT('',(805.144748023588,-738.,492.880410990652));
#640=CARTESIAN_POINT('',(805.144748023588,0.,492.880410990652));
#641=CARTESIAN_POINT('',(805.144748023588,0.,492.880410990652));
#642=CARTESIAN_POINT('',(1060.19843062116,0.,12.9999999999997));
#643=CARTESIAN_POINT('',(1060.19843062116,0.,12.9999999999997));
#644=CARTESIAN_POINT('',(1060.19843062116,-738.,12.9999999999997));
#645=CARTESIAN_POINT('',(1060.19843062116,-738.,-48.0000000000005));
#646=CARTESIAN_POINT('',(1060.19843062116,0.,-48.0000000000005));
#647=CARTESIAN_POINT('',(1060.19843062116,0.,-48.0000000000005));
#648=CARTESIAN_POINT('',(1643.28949604718,0.,12.9999999999997));
#649=CARTESIAN_POINT('',(1643.28949604718,0.,12.9999999999997));
#650=CARTESIAN_POINT('',(1643.28949604718,-738.,12.9999999999997));
#651=CARTESIAN_POINT('',(1060.19843062116,-738.,12.9999999999997));
#652=CARTESIAN_POINT('',(1060.19843062116,0.,12.9999999999997));
#653=CARTESIAN_POINT('',(1060.19843062116,0.,12.9999999999997));
#654=CARTESIAN_POINT('',(1643.28949604718,0.,24.9999999999997));
#655=CARTESIAN_POINT('',(1643.28949604718,0.,24.9999999999997));
#656=CARTESIAN_POINT('',(1643.28949604718,-747.,24.9999999999997));
#657=CARTESIAN_POINT('',(1643.28949604718,-747.,21.9999999999997));
#658=CARTESIAN_POINT('',(1643.28949604718,-750.,21.9999999999997));
#659=CARTESIAN_POINT('',(1643.28949604718,-750.,24.9999999999997));
#660=CARTESIAN_POINT('',(1643.28949604718,-750.,-125.));
#661=CARTESIAN_POINT('',(1643.28949604718,-738.,-125.));
#662=CARTESIAN_POINT('',(1643.28949604718,-738.,-125.));
#663=CARTESIAN_POINT('',(1643.28949604718,-738.,-125.));
#664=CARTESIAN_POINT('',(1643.28949604718,0.,24.9999999999997));
#665=CARTESIAN_POINT('',(1643.28949604718,0.,24.9999999999997));
#666=CARTESIAN_POINT('',(-33.,0.,25.));
#667=CARTESIAN_POINT('',(-33.,0.,25.));
#668=CARTESIAN_POINT('',(550.091065426016,0.,25.));
#669=CARTESIAN_POINT('',(550.091065426016,0.,-47.9999999999999));
#670=CARTESIAN_POINT('',(581.226381194616,0.,18.0272073617352));
#671=CARTESIAN_POINT('',(805.144748023588,0.,492.880410990652));
#672=CARTESIAN_POINT('',(1029.06311485256,0.,18.0272073617347));
#673=CARTESIAN_POINT('',(1060.19843062116,0.,-48.0000000000005));
#674=CARTESIAN_POINT('',(1060.19843062116,0.,24.9999999999995));
#675=CARTESIAN_POINT('',(1060.19843062116,0.,24.9999999999997));
#676=CARTESIAN_POINT('',(-33.,0.,25.));
#677=CARTESIAN_POINT('',(-33.,0.,25.));
#678=CARTESIAN_POINT('',(-33.,-750.,25.));
#679=CARTESIAN_POINT('',(-33.,-750.,22.));
#680=CARTESIAN_POINT('',(-33.0000000000003,-750.,-125.));
#681=CARTESIAN_POINT('',(-33.,-747.,22.));
#682=CARTESIAN_POINT('',(-33.,-747.,25.));
#683=CARTESIAN_POINT('',(-33.,0.,25.));
#684=CARTESIAN_POINT('',(-33.,-738.,25.));
#685=CARTESIAN_POINT('',(-33.0000000000003,-738.,-125.));
#686=CARTESIAN_POINT('',(-33.0000000000003,-738.,-125.));
#687=CARTESIAN_POINT('',(-33.,0.,25.));
#688=CARTESIAN_POINT('',(550.091065426016,-750.,21.9999999999997));
#689=CARTESIAN_POINT('',(1060.19843062116,-750.,21.9999999999995));
#690=CARTESIAN_POINT('',(1060.19843062116,-750.,-48.0000000000005));
#691=CARTESIAN_POINT('',(1030.3426483773,-750.,15.3137604838553));
#692=CARTESIAN_POINT('',(805.144748023588,-750.,492.880410990652));
#693=CARTESIAN_POINT('',(579.946847669879,-750.,15.3137604838557));
#694=CARTESIAN_POINT('',(550.091065426016,-750.,-47.9999999999999));
#695=CARTESIAN_POINT('',(550.091065426016,-750.,22.));
#696=CARTESIAN_POINT('',(550.091065426016,-750.,22.));
#697=CARTESIAN_POINT('',(-33.0000000000002,-750.,-124.999999999999));
#698=CARTESIAN_POINT('',(550.091065426016,-750.,-47.9999999999999));
#699=CARTESIAN_POINT('',(-33.,-747.,25.));
#700=CARTESIAN_POINT('',(550.091065426016,-747.,25.));
#701=CARTESIAN_POINT('',(550.091065426016,0.,25.));
#702=CARTESIAN_POINT('',(-33.,0.,25.));
#703=CARTESIAN_POINT('',(550.091065426016,-747.,-47.9999999999999));
#704=CARTESIAN_POINT('',(581.226381194616,-747.,18.0272073617352));
#705=CARTESIAN_POINT('',(581.226381194616,0.,18.0272073617352));
#706=CARTESIAN_POINT('',(550.091065426016,0.,-47.9999999999999));
#707=CARTESIAN_POINT('',(805.144748023588,-747.,492.880410990652));
#708=CARTESIAN_POINT('',(1029.06311485256,-747.,18.0272073617347));
#709=CARTESIAN_POINT('',(1029.06311485256,0.,18.0272073617347));
#710=CARTESIAN_POINT('',(805.144748023588,0.,492.880410990652));
#711=CARTESIAN_POINT('',(1060.19843062116,-747.,-48.0000000000005));
#712=CARTESIAN_POINT('',(1060.19843062116,-747.,24.9999999999995));
#713=CARTESIAN_POINT('',(1060.19843062116,0.,24.9999999999995));
#714=CARTESIAN_POINT('',(1060.19843062116,0.,-48.0000000000005));
#715=CARTESIAN_POINT('',(1060.19843062116,-747.,24.9999999999997));
#716=CARTESIAN_POINT('',(1060.19843062116,0.,24.9999999999997));
#717=CARTESIAN_POINT('',(-33.0000000000002,-738.,-124.999999999999));
#718=CARTESIAN_POINT('',(-33.0000000000002,-738.,-124.999999999999));
#719=CARTESIAN_POINT('',(1060.19843062116,-738.,-48.0000000000005));
#720=CARTESIAN_POINT('',(550.091065426016,-747.,22.));
#721=CARTESIAN_POINT('',(-33.,-747.,22.));
#722=CARTESIAN_POINT('',(579.946847669879,-747.,15.3137604838557));
#723=CARTESIAN_POINT('',(550.091065426016,-747.,-47.9999999999999));
#724=CARTESIAN_POINT('',(1030.3426483773,-747.,15.3137604838552));
#725=CARTESIAN_POINT('',(805.144748023588,-747.,492.880410990652));
#726=CARTESIAN_POINT('',(1060.19843062116,-747.,21.9999999999995));
#727=CARTESIAN_POINT('',(1060.19843062116,-747.,-48.0000000000005));
#728=CARTESIAN_POINT('',(1060.19843062116,-747.,21.9999999999997));
#729=(
GEOMETRIC_REPRESENTATION_CONTEXT(3)
GLOBAL_UNCERTAINTY_ASSIGNED_CONTEXT((#730))
GLOBAL_UNIT_ASSIGNED_CONTEXT((#736,#732,#731))
REPRESENTATION_CONTEXT('1742','TOP_LEVEL_ASSEMBLY_PART')
);
#730=UNCERTAINTY_MEASURE_WITH_UNIT(LENGTH_MEASURE(2.E-005),#736,
'DISTANCE_ACCURACY_VALUE','Maximum Tolerance applied to model');
#731=(
NAMED_UNIT(*)
SI_UNIT($,.STERADIAN.)
SOLID_ANGLE_UNIT()
);
#732=(
CONVERSION_BASED_UNIT('DEGREE',#734)
NAMED_UNIT(#733)
PLANE_ANGLE_UNIT()
);
#733=DIMENSIONAL_EXPONENTS(0.,0.,0.,0.,0.,0.,0.);
#734=PLANE_ANGLE_MEASURE_WITH_UNIT(PLANE_ANGLE_MEASURE(0.0174532925),#735);
#735=(
NAMED_UNIT(*)
PLANE_ANGLE_UNIT()
SI_UNIT($,.RADIAN.)
);
#736=(
LENGTH_UNIT()
NAMED_UNIT(*)
SI_UNIT(.MILLI.,.METRE.)
);
ENDSEC;
END-ISO-10303-21;
